Search tabs:
Browse artists: 0-9 | A | B | C | D | E | F | G | H | I | J | K | L | M | N | O | P | Q | R | S | T | U | V | W | X | Y | Z
/ Leftover Crack / Fuck World Trade (2004) / Via Sin Dios guitar tab

Via Sin Dios
David V.


Intro/Verse
--------------------------------------
--------------------------------------
------7---9-------5-------------------
-5----7---9--9----5---5-5-5-5-5-5-5-5-
-5----5---7--9----3---5-5-5-5-5-5-5-5-
-3-----------7--------3-3-3-3-3-3-3-3-
                      ***************

---------------------------------------
---------------------------------------
12-14-16---19-17-16--------------------
---------------------------------------
10-12-14---17-15-18--------------------
---------------------------------------

Chorus
----------------------------------
----------------------------------
4444-4~5555-5~---12-11-12---------
4444-4~5555-5~--------------------
2222-2~3333-3~---10-9--10---------
--------------------=-------------
****   ****

-----------------------------------
-----------------------------------
4444-4~5555-5~--17-19-17-----------
4444-4~5555-5~---------------------
2222-2~3333-5~--15-17-15-----------
-----------------------------------
 ****         ****

Repeat Cflat and C palm mute pattern then play this

-----------------
-----------------
-----------------
5---7---9--10----
5---7---9--10 ---
3---5---7--8-----
*************

/\  Strum each note like 8 times

Then play the verse again

Then the chorus but it has a special ending
that goes like this...

- -----------------------------------------------
-------------------------------------------------
-------------------------------------------------
5---------7------9------10-------12-------10-----
5---x8----7--x8--9--x8--10-x4----12-x2----10-x2--
3---------5------7------8--------10-------8------
*******************************************

--------------------------------------
--------------------------------------
(12--14-16-17)-21-19-17-16-12-16-12---
--------------------------------------
(10--12-14-15)-19-17-15-14-10-14-10---
--------------------------------------

Play the bracketed part twice

Solo
tremolo pick or whatever

13-17-13-15-13-17-13-15-
------------------------------------ play each note tremolo like 8 times play this whole
------------------------------------  thing 4 times
------------------------------------
------------------------------------
-----------------------------------

18b-15-13-15-13--------------------
-----------------------------------
-----------------------------------   play each note once and viberto on the 15's
-----------------------------------
-----------------------------------
-----------------------------------

as for the little part where it decends just improvise


I dont know it sounds right to me send any questions/comments to: crackrockstedie@yahoo.com


Leftover Crack albums
2004 Fuck World Trade
2001 Mediocre Generica
Fuck World Trade tabs
02Life Is Pain tabbass tab
03Burn Them Prisons tabbass tab
04Gang Control tabbass tab
05Super Tuesday tabbass tab
06Via Sin Dios tabbass tab
08One Dead Cop tabbass tab
10Rock the 40 Oz. tabbass tab
11Soon We'll Be Dead tabbass tab
13Operation: M.O.V.E. tabbass tab

 

1