Search tabs:
Browse artists: 0-9 | A | B | C | D | E | F | G | H | I | J | K | L | M | N | O | P | Q | R | S | T | U | V | W | X | Y | Z
/ Life of Agony / River Runs Red (1993) / Method of Groove guitar tab

Life of Agony - Method of Groove
From River Runs Red
Tabbed by XeroSignal (zerosignal43@yahoo.com)

Tune down one whole step (D,G,C,F,A,D)
x - palm mute
h - hammer on
^ - bend up

Riff A
|-------------|
|-------------|
|-------------|
|---2h1-1-1h2-|
|2-2---2------|
|0-0---0------|

Riff B
|---------------------------------------------|
|---------------------------------------------|
|---------------------------------------------|
|9-9-9-9-9-9-9-9-9----------------------------|
|7-7-7-7-7-7-7-7-7-10-10-10-10-10-10-10-10-10-|
|-------------------8--8--8--8--8--8--8--8--8-|
     x x x   x            x  x  x     x

Riff C (Chorus)
|-----------------------------------|-------|
|-----------------------------------|-------|
|-----------------------------------|-------|
|9-9----------------10-10-----------|---5-7-|
|7-7-10-10-10-10-10--8--8-7-7-7-7-7-|-7-3-5-|
|-----8--8--8--8--8-------5-5-5-5-5-|-5-----|

Riff D (Bridge)
|------------------------------|
|------------------------------|
|------------------------------|
|7-9-9-7-9-7-9-----------------|
|5-7-7-5-7-5-7-7-8-3-3-3-3-3-2-|
|--------------5-6-1-1-1-1-1-0-|
                   x x x x

Solo
|----------------------|-----------------------|---------------------------
|----------------------|-----------------------|---------------------------
|----------------------|-----------------------|14-12-12-12-12h14-12-12-12-
|-5-------5------------|5-----5-5-----------5--|---------------------------
|7-7h5h7-7-7h5h7-7-7---|-7-7-7---7-7-7-5-7-7-7-|---------------------------
|--------------------x2|-----------------------|---------------------------

 ----------------------------------------------------------------------|
 ----------------------------------------------------------------------|
 14-12-12-12-12h14-12-12-12-----12-12-----12-12-----------12-----------|
 --------------------------14-14-----14-14-----12h14-14-14--14-----5-7-|
 --------------------------------------------------------------7-7-3-5-|
 --------------------------------------------------------------5-5-----|


Life of Agony albums
1997 Soul Searching Sun
1995 Ugly
1993 River Runs Red
River Runs Red tabs
01This Time tabbass tab
02Underground tabbass tab
04River Runs Red tabbass tab
05Through and Through tabbass tab
06Words and Music tabbass tab
08Bad Seed tabbass tab
09My Eyes tabbass tab
11Method of Groove tabbass tab
12The Stain Remains tabbass tab

 

1