Search tabs:
Browse artists: 0-9 | A | B | C | D | E | F | G | H | I | J | K | L | M | N | O | P | Q | R | S | T | U | V | W | X | Y | Z
/ Life of Agony / River Runs Red (1993) / Through and Through guitar tab

SONG: THROUGH AND THROUGH
BAND: LIFE OF AGONY
TABBER: Evolution5
Key: .... palm mute
   : xx = open palm mute


Intro
          -2-
   X3 the -0-'s so there is 24 of them
D|----------------|--------------------------------------------------------|
A|----------------|--------------------------------------------------------|
F|----------------|--------------------------------------------------------|
C|--------22222222|--7-----5----2-xx-12/-----------------------------------|
G|-14~/---22222222|--7--XX-5-XX-2-xx-12/-----------------------------------|
D|-12~/---00000000|--5--XX-3-xx-0-xx---------------------------------------|
          .........
          PALM MUTE            / means slide into next Riff

Verse
    x3
D|---------|--------------------------|
A|---------|--------------------------|
F|---------|--------------------------|
C|-22222222|-7~---9~--12/-------------|
G|-22222222|-7~---9~--12/-------------|
D|-00000000|-5~-0-7~------------------|
  .........
     PM

Chorus
D|------------------------------------------------|
A|------------------------------------------------|
F|-----------------------12~/---------------------|/
C|-------------------7-x-12~/---------------------|/...SLIDE INTO NEXT RIFF IN SONG
G|--------7~---------7-x-10~/---------------------|/
D|--0~---------0~----5-x--------------------------|

Verse 2
D|---------------------------------------|
A|---------------------------------------|AT END OF 4TH TIME FLOW BACK INTO THE
F|---------------------------------------|VERSE
C|-2---5---7--7-55-2-xx------------------|               XX
G|-2---5---7--7-55-2-xx------------------|AS SOON AS THE XX IS PLAYED START RIFF
D|-0---3---5--5-33-0-xx------------------|AGAIN...
              ....
               Pm
BRIDGE
D|----------------------------------------------------------------|
A|----------------------------------------------------------------|FLOW STRAIGHT
F|----------------------------------------------------------------|INTO NEXT RIFF
C|-2~------------2~-----------2~----------2~----------------------|
G|-2~------------2~-----------2~----------2~----------------------|No pause
D|-0~-----3-55-3-0~----3-55-3-0~---3-55-3-0~---3-55-3-------------|



OUTRO      X 4
D|--------------------|-------------------------------------|
A|--------------------|-------------------------------------|
F|--------------9-----|-------------------------------------|
C|----7/8---7---9-7-8-|-------------------------------------| X3
G|----7/8---7---7-7-8-|-------5--------7-------5-------7----|FLOW FORM THIS INTO
D|-00-5/6-0-5-0---5-6-|-5-6-7---5-6-7----5-6-7---5-6-7------| THE OUTRO END
   ..     .   .         .....   .....    .....   .....
                         PM      PM       PM      PM

OUTRO END
D|-----------------------------|
A|-----------------------------|
F|-----------------9-----------|
C|-----------7---8-9-8/--------|
G|-------5---7---8-7-8/--------|
D|-5-6-7---0-5-0-6---6/--------|
   .....   .   .
    PM

SONG STRUCTURE:

INTRO    X 1
VERSE    X 2
CHORUS   X 1
VERSE 2  X 4
VERSE    X 2
CHORUS   X 1
BRIDGE   X 1
OUTRO    X 1
OUTROEND X 1


Life of Agony albums
1997 Soul Searching Sun
1995 Ugly
1993 River Runs Red
River Runs Red tabs
01This Time tabbass tab
02Underground tabbass tab
04River Runs Red tabbass tab
05Through and Through tabbass tab
06Words and Music tabbass tab
08Bad Seed tabbass tab
09My Eyes tabbass tab
11Method of Groove tabbass tab
12The Stain Remains tabbass tab

 

1