Search tabs:
Browse artists: 0-9 | A | B | C | D | E | F | G | H | I | J | K | L | M | N | O | P | Q | R | S | T | U | V | W | X | Y | Z
/ Life of Agony / Ugly (1994) / How It Would Be guitar tab

***** How it would be by Life of Agony *****
                      From the Ugly Album (track 8)

Tabbed by Daan Willems, Holland (email: Wiber@pop.pi.net)

Tune The Guitar 1 step down

Notation Legend:
----------------
 x     : palm muted chord


Intro
|-----------------------------------------|
|-----------------------------------------|
|-----------------------------------------|
|--9-9---xx-6--x-7-----2-2--xx-9--x-7-----|
|--9-9---xx-6--x-7-----2-2--xx-9--x-7-----|
|--7-7---xx-4--x-5-----0-0--xx-7--x-5-----|

Fill 1
|---------------------|
|---------------------|
|---------------------|
|--x-x--x-x--x-x--x---|
|--x-x--x-x--x-x--x---|
|--x-x--x-x--x-x--x---|

Riff 1
|-----------------------------------------|
|-----------------------------------------|
|-----------------------------------------|
|--2-2---xx-6--x-7-----2-2--xx-9--x-7-----|
|--2-2---xx-6--x-7-----2-2--xx-9--x-7-----|
|--0-0---xx-4--x-5-----0-0--xx-7--x-5-----|

Riff 2a
|--------------------------------------------------------------------|
|--------------------------------------------------------------------|
|--------------------------------------------------------------------|
|--6---6-6-10-10-10-3---3-3-3-3-3-3-4---4-4-4-4-4-4-4---4-4-4-4-4-4--|
|--6---6-6-10-10-10-3---3-3-3-3-3-3-4---4-4-4-4-4-4-4---4-4-4-4-4-4--|
|--4---4-4--8--8--8-1---1-1-1-1-1-1-2---2-2-2-2-2-2-2---2-2-2-2-2-2--|

Riff 2b
|-----------------------------------------------------------|
|-----------------------------------------------------------|
|-----------------------------------------------------------|
|--6-6---xx-6--x-10-10---xx-10--x-4-4---xx-4--x-4-4---xx-4--|
|--6-6---xx-6--x-10-10---xx-10--x-4-4---xx-4--x-4-4---xx-4--|
|--4-4---xx-4--x--8--8---xx--8--x-2-2---xx-2--x-2-2---xx-2--|

Fill 2
|--------------------------------------------------------------------|
|--------------------------------------------------------------------|
|--------------------------------------------------------------------|
|--6---6-6-10-10-10-3---3-3-3-3-3-3-4---4-4-4-4-4-4-7----------------|
|--6---6-6-10-10-10-3---3-3-3-3-3-3-4---4-4-4-4-4-4-7----------------|
|--4---4-4--8--8--8-1---1-1-1-1-1-1-2---2-2-2-2-2-2-5----------------|

End
|--------------------------|
|--------------------------|
|--------------------------|
|--4--4--4-----------------|
|--4--4--4-----------------|
|--2--2--2-----------------|

Song:
-----

Intro      2x
Fill 1     1x
Riff 1     4x
Intro      2x
Fill 1     1x
Riff 1     4x
Riff 2a    2x
Riff 2b    2x
Riff 2a    1x
Fill 2     1x
Riff 1     4x
Riff 2a    2x
Riff 2b    3x
End        1x


Life of Agony albums
1997 Soul Searching Sun
1995 Ugly
1993 River Runs Red
Ugly tabs

 

1