Search tabs:
Browse artists: 0-9 | A | B | C | D | E | F | G | H | I | J | K | L | M | N | O | P | Q | R | S | T | U | V | W | X | Y | Z
/ Live / The Distance to Here (1999) / Meltdown guitar tab

Live
Meltdown
The distance to here
Tuning: down half step


Intro (guitar 1)

-----------------------------------------------------------0--------------------------------------
---------------------------------------4----------------------------------------------------------
--0-2-----------4-5-4-0-2------5-4-0-2----------4-5-4-0-2-----------------------------------------
---------------------------------------------------------------------------12--12-----------------
--------------------------------------------------------------------12-12----------12--12---------
-------------------------------------------------------------------------------------------12--12-

Intro Chords (guitar 2,lined up with intro)
  Em                   Em            Em                    Em
---0--------------------0-------------0---------------------0------------
---2-----3-----2--------2--3---5------2----3--2-------------2---3--5-----
---2-----5-----4--------2--5---7------2----5--4-------------2---5--7-----
---0-----5-----4--------0--5---7------0----5--4-------------0---5--7-----
---0--------------------0-------------0---------------------0------------
---0--------------------0-------------0---------------------0------------


Verses
    Em     Listen to the song to get the beat right for this
---0-0------------------------------------------------------------------
---0h2------------------------------------------------------------------
---2-0------------------------------------------------------------------
---0-0------------------------------------------------------------------
---0-0------------------------------------------------------------------
---0-0------------------------------------------------------------------


Chorus

Fire...              Among the dreamers....
 Em                   Em
-0---------------------0--------------------------------------------------
-2---------------------2--------------------------------------------------
-2---------------------2--------------------------------------------------
-0---0-0-0-0-0-0-0-----0--------------------------------------------------
-0---3-3-3-3-3h5-5-----0------------------12^-10-12-----------------------
-0---0-0-0-0-0-0-0-----0-------------------0---0--0-----------------------


You are...                     In my heart...
  Em                             Em
---0------------------------------0---------------------------------------
---2------------------------------2---------------------------------------
---2------------------------------2---------------------------------------
---0-------0-0-0-0-0-0-0----------0---------------------------------------
---0-------3-3-3-3-3h5-5----------0--------------12^-10-12----------------
---0-------0-0-0-0-0-0-0----------0---------------0---0--0----------------

Pre-solo

--------------------------------------------------------------------------
--------------------------------------------------------------------------
--------------------------------------------------------------------------
---------12-12--------12-12--------12-12----------------------------------
--12-12---------12-12--------12-12-------12-12----------------------------
-----------------------------------------------12-12----------------------

Solo

----------------------------------------------------------------------------------------------------------------------------------------------------
----------------------------------------------------------------------------------------------------------------------------------------------------
----------------------------------------------------------------------------------------------------------------------------------------------------
----------------------------------------------------------------------------------------------------------------------------------------------------
-------------12^-10-12--------------8-7-8-8h10-8-7-------------12^-10-12-----------------------------------------------------------------------------
-10h12-12-12------------10h12-12-12-----------------10h12-12-12----------7h10-10-10-10/12-12-12-12/15-15-15-15/17-15/12------------------------------


Live albums
2003 Birds of Pray
2001 V
1999 The Distance to Here
1997 Secret Samadhi
1994 Throwing Copper
1991 Four Songs E.P.
1991 Mental Jewelry
The Distance to Here tabs
01The Dolphin's Cry tabbass tab
02The Distance tabbass tab
03Sparkle tabbass tab
04Run to the Water tabbass tab
05Sun tabbass tab
06Voodoo Lady tabbass tab
09Feel the Quiet River Rage tabbass tab
10Meltdown tabbass tab
11They Stood up for Love tabbass tab
12We Walk in the Dream tabbass tab
13Dance With You tabbass tab

 

1