Search tabs:
Browse artists: 0-9 | A | B | C | D | E | F | G | H | I | J | K | L | M | N | O | P | Q | R | S | T | U | V | W | X | Y | Z
/ Malevolent Creation / The Fine Art Of Murder (1998) / Day Of Lamentation guitar tab

Artist:Malevolent Creation
Song:Day of Lamentation

Transcribed by:Kenny

Acoustic Guitar - Riff 1
|-----------------------------------------------------------------
|-----------------------------------------------------------------
|------------------------0--------------------------------0-------
|-4-----4----4-------4-----4-------0-----0----0-------0-----0-----
|-5---5----5---5---5---5-----5-----4---4----4---4---4---4-----4---
|-7--------------7-------------7------------------5-------------5-
|
| Distorted Electric Guitar, on repeat 2 only! (^ = 11-12-11)
|-----------------------------------------------------------------
|-----------------------------------------------------------------
|-/11----------------9111211-9-7--11b----99----------12b-11---9-7-
|----------------------^-^-^--------------------------------------
|-----------------------------------------------------------------
|-----------------------------------------------------------------

Riff 1 Continued                                                  x3
-------------------------------------------------------------------|
-------------------------------------------------------------------|
------------------------0------------------------------------------|
-0-----0----0-------0-----0-------4-----4----4-----5---5---7---7---|
-2---2----2---2---2---2-----2-----4---4----4---4---5-5---5-7-7---7-|
----------------3-------------3---2----------------3-------5-------|
                                                                   |
                       (end on the slide to 11 on the third repeat)|
-------------------------------------------------------------------|
-------------------------------------------------------------------|
11b----77-----------7---9---7-9-------------------/7------/9-------|
-------------------------------------------------------------------|
-------------------------------------------------------------------|
-------------------------------------------------------------------|
                                                          End Riff 1

Distorted Electric Guitar 1 - Riff 2
|---------------------------------------------------------------------
|---------------------------------------------------------------------
|---------------------------------------------------------------------
|\9--------------------------------7---5------------------------------
|\9--------------------------------7---5------------------------------
|\7--------------------------------5---3------------------------------
|
| Distorted Electric Guitar 2, on second repeat only
|---------------------------------------------------------------------
|---------------------------------------------------------------------
|-11-11-12-12-9-9-11-11-12-11------------11-11-12-12-9-9-11-11-12-12--
|---------------------------------------------------------------------
|---------------------------------------------------------------------
|---------------------------------------------------------------------

Riff 2 Continued                                                    x2
---------------------------------------------------------------------|
---------------------------------------------------------------------|
---------------------------------------0---2------------0------------|
--7---9--------------------------------2---4------------2------------|
--7---9--------------------------------4---5------------4------------|
--5---7--------------------------------------------------------------|
                                                                     |
                                                                     |
---------------------------------------------------------------------|
---------------------------------------------------------------------|
--------11-11-12-12-9-9-11-11-9-7-9-7-6----7------------6------------|
---------------------------------------------------------------------|
---------------------------------------------------------------------|
---------------------------------------------------------------------|
                                                            End Riff 2

Distorted Electric Guitars - Riff 3     x2
|----------------------------------------|
|----------------------------------------|
|----------------------------------------|
|-2------------5------5--7--4------------|
|-2------------5------5--7--4------------|
|-0------------3------3--5--2------------|

Acoustic Guitar - Riff 4 (acoustic identical to riff 1)
|-----------------------------------------------------------------
|-----------------------------------------------------------------
|------------------------0--------------------------------0-------
|-4-----4----4-------4-----4-------0-----0----0-------0-----0-----
|-5---5----5---5---5---5-----5-----4---4----4---4---4---4-----4---
|-7--------------7-------------7------------------5-------------5-
|
| Distorted Electric Guitar, on first repeat only!
|-----------------------------------------------------------------
|-----------------------------------------------------------------
|-/11-----------------11--12--14--12-------------11--12--11---9---
|-----------------------------------------------------------------
|-----------------------------------------------------------------
|-----------------------------------------------------------------

Riff 4 Continued                                                  x2
-------------------------------------------------------------------|
-------------------------------------------------------------------|
------------------------0------------------------------------------|
-0-----0----0-------0-----0-------4-----4----4-----5---5---7---7---|
-2---2----2---2---2---2-----2-----4---4----4---4---5-5---5-7-7---7-|
----------------3-------------3---2----------------3-------5-------|
                                                                   |
                        (end on a slide to 16 on the second repeat)|
-------------------------------------------------------------------|
-------------------------------------------------------------------|
11b-------------7-------9----11-9----------------/12-----/14-------|
-------------------------------------------------------------------|
-------------------------------------------------------------------|
-------------------------------------------------------------------|
                                                          End Riff 4

Play Riff 2 x2, without the second guitar
Play Riff 3 x2

Electric Guitars - Fill
|-----------------------------------------------------------------|
|-----------------------------------------------------------------|
|-----------------------------------------------------------------|
|-2---------------------------------------------------------------|
|-2------------22222222222222222222222222222222222222222222222222-|
|-0------------00000000000000000000000000000000000000000000000000-|
                                                           End Fill

Electric Guitars - Riff 5
|---------------------------------------------------------------------
|---------------------------------------------------------------------
|---------------------------------------------------------------------
|-------------999999777777777777777777777777------------99999997777777
|-22222222222277777755555555555555555555555522222222222277777775555555
|-000000000000------------------------------000000000000--------------

Riff 5 Continued
----------------------------------------------------------------------
----------------------------------------------------------------------
----------------------------------------------------------------------
77777999999999999------------99999977777777777799999999999955555555555
5555577777777777722222222222277777755555555555577777777777733333333333
-----------------000000000000-----------------------------------------

Riff 5 Continued   x4
--------------------|
--------------------|
--------------------|
5999999777777777777-|
3777777555555555555-|
--------------------|
           End Riff 5

Electric Guitars - Riff 6                               | ending 1
|-------------------------------------------------------|-------------
|-------------------------------------------------------|-------------
|-------------------------------------------------------|-------------
|-444444444444444444555555222222222222444444444444444444|5555557777777
|-222222222222222222333333000000000000222222222222222222|3333335555555
|-------------------------------------------------------|-------------

      | ending 2         |
------|------------------|
------|------------------|
------|------------------|
77777-|2-----3-----------|
55555-|3-----5-----------|
------|------------------|
                End Riff 6

Play Riff 5 x2
Play Riff 6 x2
Play Riff 1 x3 (with original electric guitar)
Play Riff 2 x2 (with second guitar)
Play Riff 3 x2


Malevolent Creation albums
2004 Conquering South America
2004 Warkult
1998 The Fine Art Of Murder
1997 In Cold Blood
1996 Joe Black
1992 Retribution
1991 The Ten Commandments
The Fine Art Of Murder tabs
01To Die Is At Hand tabbass tab
02Manic Demise tabbass tab
12Day Of Lamentation tabbass tab

 

1