Search tabs:
Browse artists: 0-9 | A | B | C | D | E | F | G | H | I | J | K | L | M | N | O | P | Q | R | S | T | U | V | W | X | Y | Z
/ Malevolent Creation / The Fine Art Of Murder (1998) / Manic Demise guitar tab

Tune Down 1.5 step  (Db,Gb,Cb,E,Ab,db)

Riff A
(GTR 1) 4/4                                                (end Riff A)
|-----------------|-----------------|-----------------|-----------------|
|-----------------|-----------------|-----------------|-----------------|
|-----------------|-----------------|-----------------|-----------------|
|-----------------|-----------------|-----------------|-----------------|
|-7777777777777777|-6666666666666666|-5555555555555555|---------7-\-5---|
|-----------------|-----------------|-----------------|-777777775-\-3---|


(GTR 2)  w/Riff A
|-----------------|-----------------|-----------------|-----------------|
|-----------------|-----------------|-----------------|-----------------|
|-----------------|-----------------|-----------------|-----------------|
|-9-----------9\\\|-8-----------8\\\|-7---------------|-----------------|
|-7-----------7\\\|-6-----------6\\\|-5---------------|---------7-\-5---|
|-----------------|-----------------|-----------------|-777777775-\-3---|

play Riff A 4 times


Riff A1 (GTR 2)  w/Riff A
|------------------|-----------------|-----------------|------------------|
|------------------|-----------------|-----------------|------------------|
|*-----------------|-----------------|-----------------|-----------------*|
|*-----------------|-----------------|-7777777777777777|-----------------*|
|--7777777777777777|-6666666666666666|-----------------|---------7-\-5----|
|------------------|-----------------|-----------------|-777777775-\-3----|


Riff B  12/8
|--------------------------|--------------------------|-------------------------|
|--------------------------|--------------------------|-------------------------|
|*-------------------------|--------------------------|-------------------------|
|*-------------555555555555|-444444444444-------------|-------------555555555555|
|--777777777777------------|-------------8888888888888|-777777777777------------|
|--------------------------|--------------------------|-------------------------|

               (end Riff B)
|--------------------------|
|--------------------------|
|-------------------------*|
|-444444444444777777555555*|
|--------------------------|
|--------------------------|

play Riff A 2 times
play Riff A 2 times w/ Riff A1 2 times
play Riff B 2 times
play Riff A 2 times
play Riff A 2 times w/ Riff A1 2 times


Riff C  4/4 (slower)                                       (end Riff C)
|-----------------|-----------------|-----------------|-----------------|
|-----------------|-----------------|-----------------|-----------------|
|-----------------|-----------------|-----------------|-----------------|
|-----------------|-----------------|-----------------|-----------------|
|-----2---------3-|-----2---------5-|-----2---------3-|-----2-----------|
|-00000-000000001-|-00000-000000123-|-00000-000000001-|-00000-0000000000|
|                                                                       |
|                                                                       |
|-----------------|-----------------|-----------------|-----------------|
|-----------------|-----------------|-----------------|-----------------|
|-----------------|-----------------|-----------------|-----------------|
|-----------------|-----------------|-----------------|-----------------|
|---------------3\|-2-------------5\|-2-------------3\|-----11\\--------|
|---------------1\|-0-------------3\|-0-------------1\|-0000--0000000000|

play Riff C 2 times

       play 8 times
|------------------|
|------------------| not sure about
|*----------------*| this one
|*----------------*|
|------------------|
|-2-0-2-3-2-0-2-3--|

play Riff C 2 times
play Riff A (GTR 1)


(GTR 2)  w/Riff A
|-----------------|-----------------|-----------------|-----------------|
|-----------------|-----------------|-----------------|-----------------|
|-----------------|-----------------|-----------------|-----------------|
|-9-----------9\\\|-8-----------8\\\|-7---------------|-----------------|
|-7-----------7\\\|-6-----------6\\\|-5---------------|---------7-\-5---|
|-----------------|-----------------|-----------------|-777777775-\-3---|

play Riff A 2 times w/ Riff A1 2 times
play Riff A 2 times


Malevolent Creation albums
2004 Conquering South America
2004 Warkult
1998 The Fine Art Of Murder
1997 In Cold Blood
1996 Joe Black
1992 Retribution
1991 The Ten Commandments
The Fine Art Of Murder tabs
01To Die Is At Hand tabbass tab
02Manic Demise tabbass tab
12Day Of Lamentation tabbass tab

 

1