Search tabs:
Browse artists: 0-9 | A | B | C | D | E | F | G | H | I | J | K | L | M | N | O | P | Q | R | S | T | U | V | W | X | Y | Z
/ / / guitar tab

Cicatriz esp
Album: De-loused in the comatorium
Standard Tuning
Tabbed by David Elliott
email duv_elliott@hotmail.com

the verses to this song have some distortion and delay effects.

Starts with bass, drums and vocals w/ some random guitar noises

0.28 secs
|----------------------------|-------------------------------------|
|--------------------0-------|-------------------------------------|
|--------------------0-------|---------------------8~--9~--11~--12~|
|----------------------------|-------------------------------------|
|-----------7---10-----------|-----8-7-----------------------------|
|-0----5/8-------------------|-10-------10---7--8------------------|
		                                      ^this is not
	                                           the correct part
	                                        but it sounds close
|----------------------------|-------------------------------------|
|--------------------0-------|-------------------------------------|
|--------------------0-------|-------------------------------------|
|----------------------------|-------------------------------------|
|-----------7---10-----------|-----8-7-----------------------------|
|-0----5/8-------------------|-10-------10---7--8------------------|
	                                         ^more guitar
	                                               sounds

Verse

0.45 secs	 slow bend & tremolo pick on 12 b string
|--------10-------------------|--0---7---5---3----0---------------|
|--12-----------10---------12~|-----------------------------------|
|-----------------------------|-----------------------------------|
|-----------------------------|-----------------------------------|
|-----------------------------|-----------------------------------|
|-----------------------------|-------------------------------3^--|

Tremolo pick 19
|----------10--12-------------|----19--------0---7---5---3----0---|
|--12~------------10--12------|-----------------------------------|
|-----------------------------|-----------------------------------|
|-----------------------------|-----------------------------------|
|-----------------------------|-----------------------------------|
|-----------------------------|-----------------------------------|

|----------------------------|-------------------------------------|
|--------------------0-------|-------------------------------------|
|--------------------0-------|---------------------8~--9~--11~--12~|
|----------------------------|-------------------------------------|
|-----------7---10-----------|-----8-7-----------------------------|
|-0----5/8-------------------|-10-------10---7--8------------------|
		                                ^this part is not
	                                          the correct part
	                                       but it sounds close

|----------------------------|-------------------------------------|
|--------------------0-------|-------------------------------------|
|--------------------0-------|-------------------------------------|
|----------------------------|-------------------------------------|
|-----------7---10-----------|-----8-7-----------------------------|
|-0----5/8-------------------|-10-------10---7--8------------------|
	                                               ^more
                                                        guitar
	                                               sounds

Pause and fade into

Chorus               x14	   2min 7secs  low guitar noises
|-----------------------------|-----------------------------------|
|-----------------------------|-----------------------------------|
|--8--8--9--------------------|-----------------------------------|
|-----------10--9--7----------|-----------------------------------|
|-----------------------------|-----------------------------------|
|-----------------------------|----3^-----------------------------|



2min 14secs	 slow bend & tremolo pick on 12 b string
|--------10-------------------|--0---7---5---3----0---------------|
|--12-----------10---------12~|-----------------------------------|
|-----------------------------|-----------------------------------|
|-----------------------------|-----------------------------------|
|-----------------------------|-----------------------------------|
|-----------------------------|-------------------------------3^--|

Tremolo pick 19
|--12~-------10--12-----------|----19--------0---7---5---3----0---|
|-----------------10--12------|-----------------------------------|
|-----------------------------|-----------------------------------|
|-----------------------------|-----------------------------------|
|-----------------------------|-----------------------------------|
|-----------------------------|-----------------------------------|

|----------------------------|-------------------------------------|
|--------------------0-------|-------------------------------------|
|--------------------0-------|---------------------8~--9~--11~--12~|
|----------------------------|-------------------------------------|
|-----------7---10-----------|-----8-7-----------------------------|
|-0----5/8-------------------|-10-------10---7--8------------------|
		                                 ^this part is not
	                                           the correct part
	                                        but it sounds close

|----------------------------|-------------------------------------|
|--------------------0-------|-------------------------------------|
|--------------------0-------|-------------------------------------|
|----------------------------|-------------------------------------|
|-----------7---10-----------|-----8-7-----------------------------|
|-0----5/8-------------------|-10-------10---7--8------------------|
	                                         ^more guitar
	                                           sounds

Chorus               x14
2min 8 secs
|-----------------------------|
|-----------------------------|
|--8--8--9--------------------|
|-----------10--9--7----------|
|-----------------------------|
|-----------------------------|

Solo

Im still working on this tab.


albums
tabs

 

1