Search tabs:
Browse artists: 0-9 | A | B | C | D | E | F | G | H | I | J | K | L | M | N | O | P | Q | R | S | T | U | V | W | X | Y | Z
/ Michelle Branch / The Spirit Room (2001) / Everywhere guitar tab

Michelle Branch
Everywhere - The Spirit Room
Maverick Records

Standard tuning
Capo on 1st fret

the tab is spread out to roughly show the timing but the best way is to listen to the song for timing.
comments and corrections welcome!

Chords Used (relative to capo)
  Am Am* C C* D* D/F# G E/G# Bm Bm* E F
e-0---5--3--8-10--2---3--4----2-----7-3-
b-1---5--1--8-10--3---3--5----3-----9-1-
g-2---5--0--9-13--2---0--4----4-----9-2-
d-2---7--2-10-12--x---0--x----4-----9-3-
a-0---7--3-10-12--x---2--x----2-----7-x-
E-x---5--x--8-10--2---3--4----x-----x-x-


Intro:
e------------------------
b---1--------1------3----
g-----2-0------0-0-0--0-0   2x
d--2---2----2---2------0-
a-0------0h3-------------
E-----------------3------

(do intro pattern)
Turn me inside out so i can see The part of you that's drifting over me
            	----------------------------------------
		-----3-------3-------------3-------3----
		----2--2-2--2--2-2--------0--0-0--0--0-0
		--------0-------0-------------0-------0-
		----------------------------------------
		---2-------2-------------3-------3------
And when i wake you're       you're never there   But when i sleep
--------------------------------
-------1------3----------3----3-
---------2-2-2--2-2-----0--0----
------2---2------0----------0---
-----0--------------------------
------------2----------3--------
 you're      you're everywhere


(strum from here)
	       Am  C   G G
you're everywhere
Am	      C             G   G
Just tell me how i got this far
Am                C                 G    G
Tell me why you're here and who you are
		D/F#               G     G
Coz every time i look you're never there
		Am		D/F#	 G   G break
And every time i sleep you're always there

Chorus:
           F       C     G   G
Coz you're everywhere to me
		    F         C       G   G
and when i close my eyes it's you i see
                    F         C       G   G
you're everything i know that makes me believe
        Am    G
i'm not alone
G break
 i'm not alone

Am C G G

Am              C               G   G
I recognize the way you make me feel
Am                    C               G   G
I start to think that this may not be real
                   D/F#              G
I sense it now the water's getting deep
                   E/G#            Am
I try to wash the pain away from me
G       D/F# break
away from me

(Chorus)


Am*  D/F#  G  E/G#         Am*   D/F#   G   E/G#
		I'm not alone                Whoah
Am* Bm* C* D* E
oh  oh  oh

Solo: *note:the solo is not relative to the capo. play as it is*
g-13/15~-13~-11/13~-14~ (2x)
g-13/15~-17~-/18~-20~-20b22-22-22-22-22-b20-20-18-17-18-17-18-17~

Bridge
e----3-----3----3-----3-
b-----1-----1----3-----3
g---2-----0----0--0-0---
d-----------------------
a-------3---------------
E-1-----------3----3----  (repeat this throughout bridge)
And when i touch your hand it's then i understand
the beauty that's within it's now that we begin
you always light my way i hope there never comes a day

e  ----3-----3--
b  -----1-----1-
g  ---2-----0---
d  -------------
a  -------3-----
E  -1-----------
no matter where i go

e  --3-------3-
b  ---3------3-
g  -0--0-------
d  ------------
a  ------------
E  3---------3-
i always feel you so

(Chorus)

	   F      C       G
Coz you're everywhere to me
G                    F          C         G
and when i catch my breath it's you i breathe
G                   F         C           G    G
you're everything i know that makes me believe
F   C     G
i'm not alone

e  ---------3-----3-------3----3---
b  ----------1------1------3-----3-
g  --------2-----0---0---0----0---0
d  --------------------------------
a  ------------3-------------------
E  ------1-------------3-----3-----
you're in everyone i see

e  ---------3-----3-------3-
b  ----------1------1-----3-
g  --------2-----0---0----0-
d  -----------------------0-
a  ------------3----------2-
E  ------1----------------3-
so tell me    do you see me


Michelle Branch albums
2003 Are You Happy Now?
2003 Hotel Paper
2001 The Spirit Room
The Spirit Room tabs
01Everywhere tabbass tab
02You Get Me tabbass tab
03All You Wanted tabbass tab
04You Set Me Free tabbass tab
05Something to Sleep To tabbass tab
06Here With Me tabbass tab
07Sweet Misery tabbass tab
08If Only She Knew tabbass tab
09I'd Rather Be in Love tabbass tab
10Goodbye to You tabbass tab
11Drop in the Ocean tabbass tab

 

1