Search tabs:
Browse artists: 0-9 | A | B | C | D | E | F | G | H | I | J | K | L | M | N | O | P | Q | R | S | T | U | V | W | X | Y | Z
/ Minor Threat / Minor Threat (EP) (1981) / Bottled Violence guitar tab

hey i dont know if there right but here you go

verse
-------------------------------------------------
-------------------------------------------------
-------------------------------------------------
--------5---7---5------5-------------------------
--7x2--3---5---3---3--3----7x2-------------------x5
-5----------------1------5-----------------------

chorus

------------------------------------------------
------------------------------------------------
------------------------------------------------
---------5x2---3--------------------------------
---5x3--3----1----------------------------------
--3---------------------------------------------x4


you do the verse and chorus twice but at the third verse you only do
the verse txice and go into the chorus and then the song ends well
that all i got to tell you fuck peace out

luie was hear and hes never going to die


Minor Threat albums
2003 First Demo Tape
1985 Salad Days (Single)
1984 Out of Step
1981 In My Eyes (EP)
1981 Minor Threat (EP)
Minor Threat (EP) tabs
01Filler tabbass tab
02I Don't Wanna Hear It tabbass tab
03Seeing Red tabbass tab
04Straight Edge tabbass tab
05Small Man, Big Mouth tabbass tab
06Screaming at a Wall tabbass tab
07Bottled Violence tabbass tab
08Minor Threat tabbass tab

 

1