Search tabs:
Browse artists: 0-9 | A | B | C | D | E | F | G | H | I | J | K | L | M | N | O | P | Q | R | S | T | U | V | W | X | Y | Z
/ Minor Threat / Minor Threat (EP) (1981) / Screaming at a Wall guitar tab

Verse

|------------------------------
|------------------------------
|------------------------------
|--8---9-----------------------
|--6-9-7-10--7-7-7-7-7-7-7-7---
|----7----8--5-5-5-5-5-5-5-5---

 'Scream at a Wall'

|---------------------
|---------------------
|---------------------
|---------------------
|-8-9-12--5-5-5-5-5-5-
|-6-7-10--3-3-3-3-3-3-

------------------------|
------------------------|
------------------------|
------------------------|
--10-12-13--8-8-8-8-8-8-|
---9-10-11--6-6-6-6-6-6-|

End verse

|---------------------------------
|---------------------------------
|---------------------------------
|-------9-9-9-9-9-7-7-7-----------
|-9-9-9-7-7-7-7-7-5-5-5-7-7-7-7-7-
|-7-7-7-----------------5-5-5-5-5-

-Stig-


Minor Threat albums
2003 First Demo Tape
1985 Salad Days (Single)
1984 Out of Step
1981 In My Eyes (EP)
1981 Minor Threat (EP)
Minor Threat (EP) tabs
01Filler tabbass tab
02I Don't Wanna Hear It tabbass tab
03Seeing Red tabbass tab
04Straight Edge tabbass tab
05Small Man, Big Mouth tabbass tab
06Screaming at a Wall tabbass tab
07Bottled Violence tabbass tab
08Minor Threat tabbass tab

 

1