Search tabs:
Browse artists: 0-9 | A | B | C | D | E | F | G | H | I | J | K | L | M | N | O | P | Q | R | S | T | U | V | W | X | Y | Z
/ M.O.D. / USA For M.O.D. (1987) / A.I.D.S. guitar tab

Standard

|---------------|-------------------|
|---------------|-------------------|
|---------------|-------------------|
|-2-------9--8--|--2------9--8--11--|
|-2-------7--6--|--2------7--6--9---|
|-0-------------|--0----------------|

|-----|
|-----|
|-----|
|--2--|
|--2--|
|--0--|

|------------------------------|
|------------------------------|
|------------------------------|
|-7-7-7-6----------------------|
|-5-5-5-4---------2---------2--|
|----------0-0-0--0--0-0-0--0--|
           . . .     . . .

|-----------------------------------|
|-----------------------------------|
|-----------------------------------|
|-----------------4/5---------------|
|-2-------5/4-----2/3---7--7--7--7--|
|-0--0-0--3/2--0--------5--5--5--5--|
     . .       .

|------------------------------------------------------------------|
|------------------------------------------------------------------|
|------------------------------------------------------------------|
|--7-------7-------7-------7-8-7-----------------------------------|
|--5--5-5--5--5-5--5--5-5--5-6-5-8-7-------7-------7-------7-------|
|--------------------------------6-5--5-5--5--5-5--5--5-5--5--5-5--|
      . .     . .     . .  . . . .    . .     . .     . .     . .

|--------------------------|
|--------------------------|
|--------------------------|
|--------------7----7-6----|
|--5----5-4-5--5----5-4-7--|
|--3----3-2-3-----------5--|
        . . .       . . .


M.O.D. albums
1987 USA For M.O.D.
USA For M.O.D. tabs
18A.I.D.S. tabbass tab

 

1