Search tabs:
Browse artists: 0-9 | A | B | C | D | E | F | G | H | I | J | K | L | M | N | O | P | Q | R | S | T | U | V | W | X | Y | Z
/ / / guitar tab

Nine Days - Story Of A Girl
Standard Tuning

All you really need is the chord shapes and changes:

Intro/Chorus:
e---3---3---3---2---2---3---3-------------
b---3---3---3---3---3---3---3-------------
g---0---0---2---2---4---0---2-------------
d---2---0---2---0---4---2---2-------------
a---3---2---0-------2---3---0-------------
e-------3---------------------------------

Chorus Ending:
e---3---3---2---3---
b---3---3---3---3---
g---0---0---2---0---
d---0---0---0---2---
a---2---2-------3---
e---3---3-----------

Verses:
e---2---3---3---2---
b---3---3---3---3---
g---4---0---0---2---
d---4---2---0---0---
a---2---3---2-------
e-----------3-------

Pre-Chorus:
e---3---3---3---3---3---3---3---
b---3---3---3---3---3---3---3---
g---0---2---0---2---0---2---2---
d---2---0---0---2---2---0---2---
a---2---x---2---0---2---x---0---
e---0---2---3-------0---2-------
 
tabbed by zipztabs.com
Enjoy!


albums
tabs

 

1