Search tabs:
Browse artists: 0-9 | A | B | C | D | E | F | G | H | I | J | K | L | M | N | O | P | Q | R | S | T | U | V | W | X | Y | Z
/ The Police / Ghost in the Machine (1981) / Spirits in the Material World guitar tab

Spirits in the material world
by The police

Tabbed by Eddie G.
Chitarraman0990@yahoo.com

by the way, this is the only guitar tab for this song anywhere online as of 9-16-05

Main riff: (With some sort of chorus or flanger?)
e|:-7-5-5-5-3-3-0-7-|
B|:-5-5-5-5-3-3-0-5-|
G|:-5-5-5-5-4-4-0-5-|
D|:-5-7-7-7-5-5-2-5-|
A|:-----------------|
E|:-----------------|
   ^^(Cdom7, Amin, Gmaj, Emin, Cdom7)

Chorus: (Another effect)
e|:-----------------------:|
B|:-----------------------:|
G|:-------------4-5-7-----:|
D|:-7--5-7--5-7-------5-7-:|
A|:-----------------------:|
E|:-----------------------:|

Keyboard melody part:
e|:---------------------------------------------:|
B|:-12-13-12----12-13-12----12-13---------------:|
G|:----------14----------14-------14-12---12----:|
D|:------------------------------------14----14-:|
A|:---------------------------------------------:|
E|:---------------------------------------------:|

Repeat all of those a lot.


The Police albums
1983 Synchronicity
1981 Ghost in the Machine
1980 Zenyatta Mondatta
1979 Reggatta de Blanc
1978 Outlandos d'Amour
Ghost in the Machine tabs
01Spirits in the Material World tabbass tab
02Every Little Thing She Does Is Magic tabbass tab
03Invisible Sun tabbass tab
05Demolition Man tabbass tab
06Too Much Information tabbass tab
09Omegaman tabbass tab
10Secret Journey tabbass tab
11Darkness tabbass tab

 

1