Search tabs:
Browse artists: 0-9 | A | B | C | D | E | F | G | H | I | J | K | L | M | N | O | P | Q | R | S | T | U | V | W | X | Y | Z
/ The Police / Outlandos d'Amour (1978) / Roxanne guitar tab

The Police - Roxanne
====================

Tuning - Standard (E a d g b e)


You want to play this clean with a little reverb.

After strumming each time, mute the chords by lifting your fingers off the string.


       Gm         F6         Ebmaj7     Dm7
e|-----3-3-3-3-|--1-1-1-1-|--6-6-6-6-|--5-5-5-5-----
b|-----3-3-3-3-|--3-3-3-3-|--8-8-8-8-|--6-6-6-6-----
g|-----3-3-3-3-|--2-2-2-2-|--7-7-7-7-|--5-5-5-5-----
d|-----5-5-5-5-|--3-3-3-3-|--8-8-8-8-|--7-7-7-7-----
a|-------------|----------|----------|--------------
E|-------------|----------|----------|--------------


       Cm7	  Fsus4	     Gsus4
e|-----3-3-3-3-|--1-1-1-1-/--3----------------------
b|-----4-4-4-4-|--1-1-1-1-/--3----------------------
g|-----3-3-3-3-|--3-3-3-3-/--5----------------------
d|-----5-5-5-5-|--3-3-3-3-/--5----------------------
a|-------------|------------------------------------
E|-------------|------------------------------------
		Slide the chord up two frets.

Repeat forever.


The Police albums
1983 Synchronicity
1981 Ghost in the Machine
1980 Zenyatta Mondatta
1979 Reggatta de Blanc
1978 Outlandos d'Amour
Outlandos d'Amour tabs
01Next to You tabbass tab
02So Lonely tabbass tab
03Roxanne tabbass tab
06Can't Stand Losing You tabbass tab
07Truth Hits Everybody tabbass tab
09Be My Girl - Sally tabbass tab

 

1