Search tabs:
Browse artists: 0-9 | A | B | C | D | E | F | G | H | I | J | K | L | M | N | O | P | Q | R | S | T | U | V | W | X | Y | Z
/ The Red Hot Chili Peppers / Blood Sugar Sex Magik (1992) / Under The Bridge guitar tab

Song: Under The Bridge
Artist: Red Hot Chili Peppers
Album: Blood Sugar Sex Magik (1992)

Words and Music by Anthony Kiedis, Flea, John Frusciante and Chad Smith

Tuning: Standard (EADGBE)



 Intro
  Moderately Slow Rock Q=69
  D                         F#
 4/4
  Gtr I
|-------------------------|-------------------------|
|---------3-(3)-----------|-------------------------|
|-----2---------2---------|---------3-(3)-----------|
|---4---4-----------------|-----4---------4-4-2-----|
|-5---------------4-2-----|---4---4-------------5-2-|
|---------------------5-4-|-2-----------------------|
|
| Gtr II
|-------------------------|-------------------------|
|-3-----------------------|-2-----------------------|
|-------------------------|-------------------------|
|-------------------------|-------------------------|
|-------------------------|-------------------------|
|-------------------------|-------------------------|


    D                   E      F#
|----------------------------|-----------------------------|
|-------------3h5p3----------|-----------------------------|
|---------2---------2--------|-----------3-(3)-------------|
|-----4-----4---------4s6-6\-|-------4---------4-4-2-------|
|-4s5---5-------------5s7-7\-|-----4---4-------------5-2---|
|----------------------------|--2--------------------------|
|
|----------------------------|-----------------------------|
|-3--------------------------|-(2)-------------------------|
|----------------------------|-----------------------------|
|----------------------------|-----------------------------|
|----------------------------|-----------------------------|
|----------------------------|-----------------------------|


    D                             F#
|-------------------------------|-----------------------------|
|---------------3-(3)-----------|-----------------------------|
|-----------2---------2---------|-------------3-(3)-----------|
|-----(4)-----4-----------------|-----4-4-----------4-4-2-----|
|-4s5-----5-------------4-2-----|---4-----(4)-------------5-2-|
|---------------------------5-4-|-2---------------------------|
|
|-------------------------------|-----------------------------|
|-3-----------------------------|-2---------------------------|
|-------------------------------|-----------------------------|
|-------------------------------|-----------------------------|
|-------------------------------|-----------------------------|
|-------------------------------|-----------------------------|


    D                   E      F#
|----------------------------|---------------------------||
|-------------3h5p3----------|---------------------------||
|---------2---------2--------|---------3-(3)-----3-------||
|-----4-----4---------4s6-6\-|-----4---------4-----4-----||
|-4s5---5-------------5s7-7\-|---4---4---------4-----4s7-||
|----------------------------|-2-------------------------||
|
|----------------------------|---------------------------||
|-3--------------------------|-2-------------------------||
|----------------------------|---------------------------||
|----------------------------|---------------------------||
|----------------------------|---------------------------||
|----------------------------|---------------------------||


 1st Verse
     Faster Q=83
  E    B/F#             C#m7G#mA/E
  GtrGtr III
|----------------|---------------------|
|-9--x-7-(7)---x-|------9\--4--5--(5)/-|
|-9--x-8-(8)---x-|------9\--4--6--(6)/-|
|-9--x-9-(9)---x-|-9s11-9\--6--7--(7)/-|
|-7--x-9-(9)---x-|-9s11-----6--7--(7)/-|
|----------------|---------------------|


  E    B/F#           C#m/G#A/E
|-------------------|--------------------|
|-9--x-7-(7)---(7)/-|--9\---5-(5)---(5)/-|
|-9--x-8-(8)---(8)/-|--9\---6-(6)---(6)/-|
|-9--x-9-(9)---(9)/-|-11\---7-(7)---(7)/-|
|-7--x-9-(9)---(9)/-|-11\---7-(7)---(7)/-|
|-------------------|--------------------|


  E   B/F#           C#m7/G#   G#mA/E       E    B/F#
|------------------|----------------------|-------------------|
|-9---7-(7)---(7)/-|--9---(9)\-4--5--(5)/-|-9--x-7-(7)--(7)/--|
|-9---8-(8)---(8)/-|--9---(9)\-4--6--(6)/-|-9--x-8-(8)--(8)/--|
|-9---9-(9)---(9)/-|-11--(11)\-6--7--(7)/-|-9--x-9-(9)--(9)/--|
|-7---9-(9)---(9)/-|-11--(11)\-6--7--(7)/-|-7--x-9-(9)--(9)/--|
|------------------|----------------------|-------------------|


  C#m7/G#   A/E            Emaj7
                           Gtrs I, II
|------------------------|----------|-------------------||
|--9---(9)\-5-(5)---(5)/-|-9--------|-(9)------(9)-(9)\-||
|--9---(9)\-6-(6)---(6)/-|-8--------|-(8)------(8)-(8)\-||
|-11--(11)\-7-(7)---(7)/-|-9--------|-(9)------(9)-(9)\-||
|-11--(11)\-7-(7)---(7)/-|-7--------|-(7)------(7)-(7)\-||
|------------------------|----------|-------------------||


 2nd Verse
  E    B/F#
  Gtr I
|--------------------------|
|-9-9--7-(7)-7---7---------|
|-9-9--8-(8)-8---8h9p8---8-|
|-9-9--9-(9)-----------9---|
|-7-7--9-(9)---9-----------|
|--------------------------|


       C#m7/G#G#mA/E         E    B/F#
|------------------5h7p5---|--------------------------|
|------9----9-4--5-------5-|-9-9--7-(7)-7---7---------|
|------9----9-4--6-------6-|-9-9--8-(8)-8---8h9p8---8-|
|-9s11-9-11-9-6--7---------|-9-9--9-(9)-----------9---|
|-9s11---11---6--7---------|-7-7--9-(9)---9-----------|
|--------------------------|--------------------------|


       C#m7/G# A/E
|--------------------5-----|
|------9----9--5-(5)---5---|
|------9----9--6-(6)-----6-|
|-9s11-9-11-9--7-(7)-------|
|-9s11---11----7-(7)-------|
|--------------------------|


  E    B/F#                      C#m7      G#mA/E
|----------------------------|------------------5h7p5---|
|-9-9--------7-7---7---------|------9----9-4----------5-|
|-9-9--------8-8---8h9p8---8-|------9----9-4--6-------6-|
|-9-9--9-(9)-------------9---|-9s11-9-11-9-6--7---------|
|-7-7--9-(9)-----9-----------|-9s11---11---6--7---------|
|----------------------------|--------------------------|


  E    B/F#                 C#mA/E#         Emaj7
                                            Gtrs I, II
|--------------------|---------------5----|-(7)--------|-(7)----||
|-9-9--------7---7---|------9--5-(5)---5--|--9---------|-(9)----||
|-9-9------------8-8-|------9--6-(6)------|--8---------|-(8)----||
|-9-9--9-(9)-------9-|-9s11-9--7-(7)------|--9---------|-(9)----||
|-7-7--9-(9)---9-----|-9s11----7-(7)------|--7---------|-(7)----||
|--------------------|--------------------|------------|--------||


 1st Chorus
   F#m E         B            F#m
   Gtr II
|--------------|-11-11-11-11-----------9--9-----|
|--10--9-9--9--|-12-12-12-12--10-(10)-10-10-x-x-|
|--11--9-9--9--|-11-11-11-11--11-(11)-11-11-x-x-|
|--11--9-9--9--|--------------11-(11)-11-11-x-x-|
|---9--7-7--7--|---------------9--(9)--9--9-x-x-|
|--------------|--------------------------------|


          E         B            F#m
|-----------------|-11-11-11-11-----------9--9-x-x-|
|-x-x-10--9-9--9--|-12-12-12-12--10-(10)-10-10-x-x-|
|-x-x-11--9-9--9--|-11-11-11-11--11-(11)-11-11-x-x-|
|-x-x-11--9-9--9--|--------------11-(11)-11-11-x-x-|
|-x-x--9--7-7--7--|---------------9--(9)--9--9-x-x-|
|-----------------|--------------------------------|


          E         B            F#m
|-----------------|-11-11-11-11-----------9--9-x-x-|
|-x-x-10--9-9--9--|-12-12-12-12--10-(10)-10-10-x-x-|
|-x-x-11--9-9--9--|-11-11-11-11--11-(11)-11-11-x-x-|
|-x-x-11--9-9--9--|--------------11-(11)-11-11-x-x-|
|-x-x--9--7-7--7--|---------------9--(9)--9--9-x-x-|
|-----------------|--------------------------------|


          E         B            F#m
|-----------------|-11-11-11-11-----------9--9-------|
|-x-x-10--9-9--9--|-12-12-12-12--10-(10)-10-10-x-x---|
|-x-x-11--9-9--9--|-11-11-11-11--11-(11)-11-11-x-x---|
|-x-x-11--9-9--9--|--------------11-(11)-11-11-x-x---|
|-x-x--9--7-7--7--|---------------9--(9)--9--9-x-x---|
|-----------------|----------------------------------|


  E       B/F#
|-----------------------------|
|-9-9-x-x-7-(7)-7---7h9p7-----|
|-9-9-x-x-8-(8)-8---8-------8-|
|-9-9-x-x-9-(9)-----------9---|
|-7-7-x-x-9-(9)---9-----------|
|-----------------------------|


       C#m7/G#  G#mA/E         E       B/F#
|--------------------5h7p5---|-----------------------------|
|-------9-----9-4--5-------5-|---9-x-x-7-(7)-7---7---------|
|-------9-----9-4--6-------6-|---9-x-x-8-(8)-8---8h9p8---8-|
|-9s11-11-11-11-6--7---------|---9-x-x-9-(9)-----------9---|
|-9s11----11----6--7---------|-7-7-x-x-9-(9)---9-----------|
|----------------------------|-----------------------------|


       C#m7/G# A/E
|--------------------5-----||
|------9----9\-5-(5)---5---||
|------9----9\-6-(6)-----6-||
|-9s11-9-11-9\-7-(7)-------||
|-9s11---11----7-(7)-------||
|--------------------------||


 3rd Verse
      E/G#  B/F#                         C#m7/G#G#mA/E
|---------------------------------|------------------5-----|
|-----9---------------------------|------9----9-4------5---|
|-----9-----------8-----8h9-8-8-8-|------9----9-4--------6-|
|-----9-------------9-------------|-9s11-9-11-9-6--7-------|
|-/11---11\-9-(9)-----9-----------|-9s11---11---6--7-------|
|---------------------------------|------------------------|


  E    B/F#                     C#mA/E#              E    B/F#
|------------------7h9-7-|---------5-(5)-5---------|------7-(7)-7--------------|
|---9--7-(7)-7---------7-|------9--5-(5)---5-------|---9--7-(7)-7---7----------|
|---9--8-(8)---8-8-------|------9--6-(6)-----6-----|---9--8-(8)-8---8h9p8---8--|
|-9-9--9-(9)-------------|-9s11-9--7-(7)-------(7)-|-9-9--9-(9)-9-9-------9----|
|-7-7--9-(9)-------------|-9s11----7-(7)-----------|-7-7--9-(9)-9--------------|
|------------------------|-------------------------|---------------------------|


       C#m7/G#G#mA/E         E        B
|------------------5h7p5---|------------------------|
|------9----9-4----------5-|----9-------------------|
|------9----9-4------------|----9-----------8-(8)---|
|-9s11-9-11-9-6--7---------|----9-----------9-(9)---|
|-9s11---11---6--7---------|-11---11\-9-(9)-------9-|
|--------------------------|----------7-(7)---------|


  C#m7/G#A/E          Emaj7
|--------------5----|-7--------|-(7)------(7)-(7)---||
|--------5-(5)---5--|-9--------|-(9)------(9)-(9)\--||
|-----9--6-(6)------|-8--------|-(8)------(8)-(8)\--||
|-----9--7-(7)------|-9--------|-(9)------(9)-(9)\--||
|-/11----7-(7)------|-7--------|-(7)------(7)-(7)\--||
|--/9---------------|----------|--------------------||


 2nd Chorus
   F#m E         B            F#m
|--------------|-11-11-11-11-----------9--9-----|
|--10--9-9--9--|-12-12-12-12--10-(10)-10-10-x-x-|
|--11--9-9--9--|-11-11-11-11--11-(11)-11-11-x-x-|
|--11--9-9--9--|--------------11-(11)-11-11-x-x-|
|---9--7-7--7--|---------------9--(9)--9--9-x-x-|
|--------------|--------------------------------|


          E         B            F#m
|-----------------|-11-11-11-11-----------9--9-----|
|-x-x-10--9-9--9--|-12-12-12-12--10-(10)-10-10-x-x-|
|-x-x-11--9-9--9--|-11-11-11-11--11-(11)-11-11-x-x-|
|-x-x-11--9-9--9--|--------------11-(11)-11-11-x-x-|
|-x-x--9--7-7--7--|---------------9--(9)--9--9-x-x-|
|-----------------|--------------------------------|


          E         B            F#m
|-----------------|-11-11-11-11--------------------|
|-x-x-10--9-9--9--|-12-12-12-12--10-(10)-10-10-x-x-|
|-x-x-11--9-9--9--|-11-11-11-11--11-(11)-11-11-x-x-|
|-x-x-11--9-9--9--|--------------11-(11)-11-11-x-x-|
|-x-x--9--7-7--7--|---------------9--(9)--9--9-x-x-|
|-----------------|--------------------------------|


          E         B            F#m
|-----------------|-11-11-11-11----------------0-0---||
|-x-x-10--9-9--9--|-12-12-12-12--10-(10)--(10)-5-5---||
|-x-x-11--9-9--9--|-11-11-11-11--11-(11)--(11)-6-6---||
|-x-x-11--9-9--9--|--------------11-(11)--(11)-7-7---||
|-x-x--9--7-7--7--|---------------9--(9)---(9)-------||
|-----------------|----------------------------------||


 Interlude
  A  Am          G6   Fmaj7         A   Am         G6      Fmaj7
|-0--0--(0)----|-0-0--0-(0)-0-0-0-|-0---0-(0)----|-0-0-(0)-0-(0)-0----|
|-5--5--(5)----|-3-3--1-(1)-1-1-1-|-5---5-(5)----|-3-3-(3)-1-(1)-1----|
|-6--5--(5)----|-4-4--2-(2)-2-2-2-|-6---5-(5)----|-4-4-(4)-2-(2)------|
|-7--7--(7)----|-5-5--3-(3)-3-3-3-|-7---7-(7)----|-5-5-(5)-3-(3)------|
|--------------|------------------|--------------|--------------------|
|--------------|------------------|--------------|--------------------|


  A  Am          G6   Fmaj7
|-0--0--(0)----|-0-0--0-(0)-0-0-0-0-x-|-12-12-12-12-12-12-12-12-12-12-12-12-12-12-12-12-|
|-5--5--(5)----|-3-3--1-(1)-1-1-1-1-x-|-10-10-10-10-10-10-10-10-10-10-10-10-10-10-10-10-|
|-6--5--(5)----|-4-4--2-(2)-2-2-2-2-x-|-10-10-10-10-10-10-10-10-10-10-10-10-10-10-10-10-|
|-7--7--(7)----|-5-5--3-(3)-3-3-3-3-x-|-10-10-10-10-10-10-10-10-10-10-10-10-10-10-10-10-|
|--------------|----------------------|-------------------------------------------------|
|--------------|----------------------|-------------------------------------------------|


  E7                      G
|-10-10-10-10-10-10-10-10-7-7-7-7-7-7-7-7--||
|--9--9--9--9--9--9--9--9-8-8-8-8-8-8-8-8--||
|--9--9--9--9--9--9--9--9-7-7-7-7-7-7-7-7--||
|--9--9--9--9--9--9--9--9------------------||
|------------------------------------------||
|------------------------------------------||


   3rd Chorus
    A      Am              G6     Fmaj7
    Gtr III
    | || ||| | |  || ||||  | ||| ||  |    | |      |    | |
    / // /// / /  // ////  / /// //  /    / /      /    / /

||--0--0---0--(0)--0-----|-0---0--0-(0)--------------------|
||o-5--5---5--(5)--5-----|-3---3--1-(1)--------------------|
||--6--6---5--(5)--5-----|-4---4--2-(2)-----5b5.5-(5)------|
||--7--7---7--(7)--7-----|-5---5--3-(3)-5s7-----------7-5--|
||o----------------------|---------------------------------|
||-----------------------|---------------------------------|


  A    Am            G6     Fmaj7
  | ||||  |  ||||||  | || ||                | | | |
  / ////  /  //////  / // //                / / / /

|-0----0-(0)-------|-0--0---0-(0)-------------------|
|-5----5-(5)-------|-3--3---1-(1)-------------------|
|-6----5-(5)-------|-4--4---2-(2)-----5b5.5---------|
|-7----7-(7)-------|-5--5---3-(3)-5s7-------7-5-7---|
|------------------|--------------------------------|
|------------------|--------------------------------|


  A    Am              G6      Fmaj7
  | |||| | |  |||||||  | ||| |||  |   | | |      |  | |
  / //// / /  ///////  / /// ///  /   / / /      /  / /

|-0----0--(0)--------|-0---0---0-(0)--------------------|
|-5----5--(5)--------|-3---3---1-(1)--------------------|
|-6----5--(5)--------|-4---4---2-(2)------5b5.5-(5)-----|
|-7----7--(7)--------|-5---5---3-(3)-/5-7-----------7-5-|
|--------------------|----------------------------------|
|--------------------|----------------------------------|


  A    Am            G6   Fmaj7
  | |||| | |  |||||  | | ||  |   |         | | |
  / //// / /  /////  / / //  /   /         / / /

|-0----0--(0)------|-0-0--0-(0)-------------------||
|-5----5--(5)------|-3-3--1-(1)------------------o||
|-6----5--(5)------|-4-4--2-(2)------5b5.5--------||
|-7----7--(7)------|-5-5--3-(3)-/5-7-------7-5-7--||
|------------------|-----------------------------o||
|------------------|------------------------------||


 Outro
  A     Am                G6         Fmaj7
  Gtr I
|---0-0-0-0-(0)-0-0-x-x-|---0--0-x-x-0-(0)-----0---|
|---5-5-1-1-(1)-1-1-x-x-|---3--3-x-x-1-(1)-0h1---1-|
|---6-6-2-2-(2)-2-2-x-x-|---4--4-x-x-2-(2)---------|
|---7-7-----------------|---5--5-x-x-3-(3)---------|
|-----------------------|--------------------------|
|-----------------------|--------------------------|
|
| Gtr II
|-----------------------|--------------------------|
|-----------------------|--------------------------|
|-/14-------------------|-(14)---------------------|
|-----------------------|--------------------------|
|-----------------------|--------------------------|
|-----------------------|--------------------------|


  A     Am                  G6      Fmaj7bFmaj7
|-0-0-x-0-(0)-0-0-0-3p0-0-|-0-0-0-0-0-(0)-0-0-0-0-------|
|-5-5-x-1-(1)-1-1-1-1---1-|-3-3-3-3-0-(0)-1-1-1-1h3p1---|
|-6-6-x-2-(2)-------------|-4-4-4-4-2-(2)-2-2-2-------2-|
|-7-7-x-------------------|-5-5-5-5-3-(3)---------------|
|-------------------------|-----------------------------|
|-------------------------|-----------------------------|


  A    Am                G6    Fmaj7bFmaj7
|-0-0--0-(0)-0-0-3p0---|-0-0-0-0-(0)-0-0-0-0/--|
|-5-5--1-(1)-1-1-1-1-1-|-3-3-3-0-(0)-1-1-1-1/--|
|-6-6--2-(2)-----------|-4-4-4-2-(2)-2-2-2-2/--|
|-7-7------------------|-5-5-5-3-(3)-------3/--|
|----------------------|-----------------------|
|----------------------|-----------------------|


  A    Am                 G6   Fmaj7bFmaj7 A
|-0-0--0-(0)-0----------|-0-0--0-(0)-----|------------(3)-*|
|-5-5--1-(1)-1--1h3p1---|-3-3--0-(0)-1---|-2------(2)-----*|
|-6-6--2-(2)-2--------2-|-4-4--2-(2)-----|-2------(2)-----*|
|-7-7-------------------|-5-5--3-(3)-----|-2------(2)-----*|
|-----------------------|----------------|-0------(0)-----*|
|-----------------------|----------------|----------------*|


The Red Hot Chili Peppers albums
2006 Stadium Arcadium
2004 Live in Hyde Park
2002 By The Way
1999 Californication
1995 One Hot Minute
1994 Out In L.A.
1992 Blood Sugar Sex Magik
1989 Mother's Milk
1987 The Uplift Mofo Party Plan
1985 Freaky Styley
1984 Red Hot Chili Peppers
Blood Sugar Sex Magik tabs
01The Power of Equality tabbass tab
02If You Have to Ask tabbass tab
03Breaking the Girl tabbass tab
04Funky Monks tabbass tab
05Suck My Kiss tabbass tab
06I Could Have Lied tabbass tab
07Mellowship Slinky in B Major tabbass tab
08The Righteous & The Wicked tabbass tab
09Give It Away tabbass tab
10Blood Sugar Sex Magik tabbass tab
11Under The Bridge tabbass tab
12Naked in the Rain tabbass tab
13Apache Rose Peacock tabbass tab
14The Greeting Song tabbass tab
15My Lovely Man tabbass tab
16Sir Psycho Sexy tabbass tab
17They're Red Hot tabbass tab

 

1