Search tabs:
Browse artists: 0-9 | A | B | C | D | E | F | G | H | I | J | K | L | M | N | O | P | Q | R | S | T | U | V | W | X | Y | Z
/ / / guitar tab

Standard Tuning
Key: Am

(starts with feedback, horns, then bass)

Intro:
Am
|-0-----------0-----|
|---1-------1-------|
|-----2---2---------|
|-------2-----------|
|-------------------|
|-------------------|

    Am        C    B
|-x-00-x-0--x-33-x-2----|
|-x-11-x-1--x-55-x-4----|
|-x-22-x-2--x-55-x-4----|
|-x-22-x-2--x-55-x-4----|  (x3)
|-x-00-x-0--x-33-x-2----|
|-x----x----x----x------|

    Am      C    B  (dist. on the power chords)
|-x-00-x-0--------------|
|-x-11-x-1--------------|
|-x-22-x-2--555--444----|
|-x-22-x-2--555--444----|
|-x-00-x-0--333--222----|
|-x----x----------------|

    Am        C    B
|-x-00-x-0--x-33-x-2----|
|-x-11-x-1--x-55-x-4----|
|-x-22-x-2--x-55-x-4----|
|-x-22-x-2--x-55-x-4----|  (x3)
|-x-00-x-0--x-33-x-2----|
|-x----x----x----x------|

    Am
|-x-00-x-0--x//---------|
|-x-11-x-1--x//---------|
|-x-22-x-2--x//---------|
|-x-22-x-2--x//---------|
|-x-00-x-0--x//---------|
|-x----x----x//---------|


Chorus: (acts as a preverse as well)
(w/dist.)
  Am     B C
|---------------------|
|---------------------|
|-2-222--4/5----------| (x3)
|-2-222--4/5--2-------|
|-0-000--2/3---321----|
|---------------------|

  Am     B C
|--------------x------|
|--------------x------|
|-2-222--4/5---x------|
|-2-222--4/5---x------|
|-0-000--2/3---x------|
|--------------x------|


Verse:
  Am                                         Cm        Bm
|-55x5x5x5-xx-55x5x5x5-xx-55x5x5x5-xx-55x5x5-8--8--8---7-7-7-|
|-55x5x5x5-xx-55x5x5x5-xx-55x5x5x5-xx-55x5x5-8--8--8---7-7-7-|
|-55x5x5x5-xx-55x5x5x5-xx-55x5x5x5-xx-55x5x5-10-8--8---7-7-7-|
|-77x7x7x7-xx-77x7x7x7-xx-77x7x7x7-xx-77x7x7-10-10-10--9-9-9-|
|-77x7x7x7-xx-77x7x7x7-xx-77x7x7x7-xx-77x7x7-10-10-10--9-9-9-|
|-55x5x5x5-xx-55x5x5x5-xx-55x5x5x5-xx-55x5x5-8--8--8---7-7-7-|

  Am                                         Cm    Bm
|-55x5x5x5-xx-55x5x5x5-xx-55x5x5x5-xx-55x5x5-8--8--7------x/-|
|-55x5x5x5-xx-55x5x5x5-xx-55x5x5x5-xx-55x5x5-8--8--7------x/-|
|-55x5x5x5-xx-55x5x5x5-xx-55x5x5x5-xx-55x5x5-10-8--7------x/-|
|-77x7x7x7-xx-77x7x7x7-xx-77x7x7x7-xx-77x7x7-10-10-9------x/-|
|-77x7x7x7-xx-77x7x7x7-xx-77x7x7x7-xx-77x7x7-10-10-9------x/-|
|-55x5x5x5-xx-55x5x5x5-xx-55x5x5x5-xx-55x5x5-8--8--7------x/-|

Breakdown:(w/dist.)
 Em  F   G   F       Em
|-----------------xx---xx---xx---xx---|
|-----------------xx---xx---xx---xx---|
|-----------------xx---xx---xx---xx---|
|222/333/555\333--xx-2-xx-2-xx-2-xx-2-| (x3)
|222/333/555\333--xx-2-xx-2-xx-2-xx-2-|
|000/111/333\111--xx-0-xx-0-xx-0-xx-0-|

 Em  F   G   F     Em
|-------------------------------------|
|-------------------------------------|
|-------------------------------------|
|222/333/555\333---2--(let ring)------|
|222/333/555\333---2------------------|
|000/111/333\111---0------------------|

(increase tempo gradually)
|-------------------------------------------------------------------------|
|-------------------------------------------------------------------------|
|-----------------------------------------------------13------------------|
|-2----3----4----5----6----7----8----9------10--------13---7777-1010-99-7-|
|--323--434--545--656--767--878--989--10910---111011--11---7777-1010-99-7-|
|----------------------------------------------------------5555-8-8--77-5-|


Ending:
|---------------|
|---------------|
|---------------|
|-2-------------|
|--3210---------|
|---------------|


Song Order:
Intro
Chorus
Verse
Chorus
Verse
Chorus
Breakdown
Intro
Chorus(x2)
Ending


albums
tabs

 

1