Search tabs:
Browse artists: 0-9 | A | B | C | D | E | F | G | H | I | J | K | L | M | N | O | P | Q | R | S | T | U | V | W | X | Y | Z
/ / / guitar tab

Ballad of william kidd by Running Wild

Tabbed by: Max Olsson

Contact: ol_friman@hotmail.com

/: slide up
\: slide down
u: bend up
r: release bend
h: hammer on
p: pull off
*: repeat

Intro riff 1 (repeat 4x)
                                                             ending
E||--------------------------8---------------------------/-----------
B||---8-10-8---------8-10-8-------8-10-8-------8-10-8--8-/-----------
G||-10------10-----10------10---10------10---10------10--/---5/6\5---
D||-----------7---------------------------7--------------/-----------
A||------------------------------------------------------/-----------
E||------------------------------------------------------/-----------

Intro riff 2 (repeat 6x)

E||---------------------------------------------------------------------------
B||---------------------------------------------------------------------------
G||------------------------------------------------------------------5-2------
D||-0-0-7-0-10-0-5-7----0-0-7-0-10-0-3\5----0-0-7-0-10-0-5-7------3-3-3-3-----
A||----------------------------------------------------------------------3----
E||---------------------------------------------------------------------------

Guitar Solo (4:05)

E||--------------------------------------10-----------------------------------
B||-5u-5-5--------------------------------12p10-------------------------------
G||------------------------5------------------12-10h12-10--10-12u-10-12-------
D||-------3-5-3-5---0-3-5-7-7-3-7-5-3-5------------------12-------------------
A||--------------5------------------------------------------------------------
E||---------------------------------------------------------------------------

E||-5-8-5-8\10--8-5-8-5----------10--------------10--------------5---------5--------
B||--------------------6-8--10h12--12-10----10h12--12-10--------8-8-6-8-6-6-8-6-8---
G||-------------------------------------12--------------10---------------7----------
D||---------------------------------------------------------------------------------
A||---------------------------------------------------------------------------------
E||---------------------------------------------------------------------------------

El -------------------------------------------------------
Bl --10h12-10------------------13----------------10-12-10-
Gl ----------12-10-12-10-12--12u---12-10-12u-12-7---------
Dl -------------------------------------------------------
Al -------------------------------------------------------
El -------------------------------------------------------

El-8\10-------------------------------------------------
Bl----12p10---12\14-12-10-8\10--------------------------
Gl--------10-----------------12-10/9-7------------------
Dl------------------------------------------------------
Al------------------------------------------------------
El------------------------------------------------------

2x
E||---------------------------------------------------------------------------
B||---------------------------------------------------------------------------
G||---------------------------------------------------------------------------
D||-000-000-000-000-333-333-333-333-555-555-555-555-777-555-333-222-----------
A|----------------------------------------------------------------------------
E||---------------------------------------------------------------------------

4x
E||---------------------------------------------------------------------------
B||---------------------------------------------------------------------------
G||---------------------------------------------------------------------------
D||-0-0-3-5-5\7---3--3-5-5\7-3-5--0-0-3-5-5\7---5h7-7\8-7-3-5------------------
A|----------------------------------------------------------------------------
E||---------------------------------------------------------------------------

2x
E||---------------------------------------------------------------------------
B||---------------------------------------------------------------------------
G||---------------------------------------------------------------------------
D||-000-000-000-000-333-333-333-333-555-555-555-555-777-555-333-222-----------
A|----------------------------------------------------------------------------
E||---------------------------------------------------------------------------

4x
E||---------------------------------------------------------------------------
B||---------------------------------------------------------------------------
G||------------------------------------------------------------------5--------
D||-0-0-7-0-10-0-5-7----0-0-7-0-10-0-3\5----0-0-7-0-10-0-5-7------3-3-3-5-3---
A||------------------------------------------------------------------------3--
E||---------------------------------------------------------------------------

"ending riff"

E||---------------------------------------------------------------------------
B||---------------------------------------------------------------------------
G||----2----------2---5------2---------2-----2--------------------------------
D||-3h5-5-3----3h5-5-3----3h5-5-3---3h5-5-3-5-5-------------------------------
A|---------5---------------------5--------------------------------------------
E||---------------------------------------------------------------------------

outro

E||---------------------------------------------------------------------------
B||---------------------------------------------------------------------------
G||---------------------------------------------------------------------------
D||------3-3-5-5------7-3-5\7-5-------3-3-5-5----7-7-5------------------------
A|--3-5-5-------5--3-5-----------3-5-5-------5--3-----7-5---------------------
E||---------------------------------------------------------------------------


albums
tabs

 

1