Search tabs:
Browse artists: 0-9 | A | B | C | D | E | F | G | H | I | J | K | L | M | N | O | P | Q | R | S | T | U | V | W | X | Y | Z
/ Sevendust / Animosity (2001) / Redefine guitar tab

Redefine
Sevendust
Animosity
Tabbed by crazytom
deathtone@wanadoo.fr

Standard Tuning
Riff 1:
---------------------------------------------------
---------------------------------------------------
---------------------------------------------------
---2-2-2-2---2-2-2-2---2-2-2---2-2-2-2---2-2-2-2---
---2-2-2-2---2-2-2-2---2-2-2---2-2-2-2---2-2-2-2---
---2-2-2-2---2-2-2-2---2-2-2---2-2-2-2---2-2-2-2---

Riff 2:             Fill 1
-------------------|-----------
-------------------|---12------
-------------------|------11---
-------------------|-----------
---2--3--0--2--3---|-----------
-------------------|-----------

Riff 3:play all notes a lot
---------------------------
---------------------------
------------------11--12---
---12---12---14------------
------------------9---10---
---10---10---12------------


Sevendust albums
2003 Seasons
2001 Animosity
1999 Home
1997 Sevendust
Animosity tabs
01Tits on a Boar tabbass tab
02Praise tabbass tab
03Trust tabbass tab
04Crucified tabbass tab
05Xmas Day tabbass tab
06Dead Set tabbass tab
07Shine tabbass tab
08Follow tabbass tab
09Damaged tabbass tab
10Live Again tabbass tab
11Beautiful tabbass tab
12Redefine tabbass tab
13Angel's Son tabbass tab

 

1