Search tabs:
Browse artists: 0-9 | A | B | C | D | E | F | G | H | I | J | K | L | M | N | O | P | Q | R | S | T | U | V | W | X | Y | Z
/ Sevendust / Animosity (2001) / Trust guitar tab

sevendust - Trust
Tabbed By: 7-stripes
Email: mystikle_2000@yahoo.com

Tuning: Drop B (B F# B E G# C#)
Tabbed by Brandon Thompson

          Intro

          C#------------------------------------------------------------------
          G#-----0-----0-----0-----0-----0--0-------------------------------
          E ---------4-----2-----1-----1---------1h2h4-----------------------
          B -------------------------------------------------------------------
          F#-------------------------------------------------------------------
          A#--0---------------------------------------------------------------



          C#---------------------------------------------------------------
          G#-----0-----0-----0-----0--------------------------------------
          E ---------4-----2-----1-----------------------------------------
          B ----------------------------4-----------------------------------
          F#----------------------------------------------------------------
          A#--0------------------------------------------------------------

          Riff #1

          C#----------------------------------------------------------------
          G#----------------------------------------------------------------
          E ----------------------7------7--------7-------------------------
          B ---------------11-------11-----11-------9----------------------
          F#-----------------------------------------------------------------
          A#--0--0--0------------------------------------------------------



          C#-----------------------------------------------------------------
          G#-----------------------------------------------------------------
          E -------------------6-----6-------6-------------------------------
          B --------------9-------9-----7-------6----------------------------
          F#------------------------------------------------------------------
          A#--0--0--0--------------------------------------------------------  (x4)

          Verse #1

          C#----------------------------------------------------------------
          G# --------0-------------------------------------------------------
          E ------6--6-------------------------------------------------------
          B ------------------------------------------------------------------
          F#--4--------------------------------------------------------------
          A#-----------------------------------------------------------------       (play at end of each phrase of the verse)

          C#----------------------------------------------------------------
          G#----------------------------------------------------------------
          E -----------------------------------------------------------------
          B -----------------------------------------------------------------
          F#----------------------------------------------------------------
          A#--0-0-0-0-0-0----0-0-0-0-0----0-0-0-0-0-0----0-0-0-0-0----------
                                      Trust!

          C#----------------------------------------------------------------
          G#----------------------------------------------------------------
          E  ----------------3--3--3-------------------3--3--3---------------
          B  ----------------------------------------------------------------
          F#-----------------5--5--5-------------------5--5--5-------------
          A#--0-0-0-0-0-0--------------0-0-0-0-0----------------0-0-0-0-0------
          	        harm|---------|            harm|-------|

          C#----------------------------------------------------------------
          G#----------------------------------------------------------------
          E  -3--3--3-------------------------------------------------------
          B  -----------------------------------------------------------------
          F#--5--5--5--------------------------------------------------------
          A#------------0-0-0-12/--------------------------------------------
          harm|-------|

          chorus

          C#--0----0--0---0----0--0--0--0------0----0--0--0--0--0--0--0-----
          G#--------------------------------------------------------------
          E  -2----2--2---4----4--4--4--4------4----4--4--4--4--4--4--4----
          B  -2----2--2---2----2--2--2--2------2----2--2--2--2--2--2--2----
          F#--0----0--0---0----0--0--0--0------------------------------------
          A#-----------------------------------0----0--0--0--0--0--0--0---


          C#--0----0--0----0---0--0--0--0-----0----0--0---0----0--0--0---0-----
          G#-----------------------------------------------------------------------
          E --4----4--4----4---4--4--4--4-----6----6--6---6----6--6--6---6------
          B --6----6--6----6---6--6--6--6-----4----4--4---4----4--4--4---4-----
          F#-----------------------------------------------------------------------
          A#--3----3--3----3----3--3--3--3----5----5--5---5----5--5--5---5-----

          C#--0----0--0---0----0--0---0----0------0----0---0--0--0--0---0---0---
          G#-------------------------------------------------------------------------
          E  -4----4--4---4----4--4---4----4------4----4---4--4--4--4---4---4---
          B  -4----4--4---4----4--4---4----4------2----2---2--2--2--2---2---2---
          F#--2----2--2---2----2--2---2----2------0----0---0--0--0--0---0---0---
          A#-------------------------------------------------------------------------

          C#--0----0--0---0----0--0---0---0------0----0---0--0----0--0---0---0-----
          G#-------------------------------------------------------------------------
          E  -4----4--4---4----4--4---4---4------4----4---4--4----4--4---4---4------
          B  -6----6--6---6----6--6---6---6------6----6---6--6----6--6---6---6------
          F#-------------------------------------------------------------------------
          A#--0----0--0---0----0--0---0---0------3----3---3--3----3--3---3---3------

          C#--0----0--0---0----0--0---0----0----0----0--0--0---0----0--0---0---0------
          G#--------------------------------------------------------------------------
          E --6----6--6---6----6--6---6----6----6----6--6--6---6----6--6---6---6-------
          B --4----4--4---4----4--4---4----4----4----4--4--4---4----4--4---4---4-------
          F#---------------------------------------------------------------------------
          A#--5----5--5---5----5--5---5----5----5----5--5--5---5----5--5---5---5-------

          Verse #2

          C#----------------------------------------------------------------
          G# --------0-------------------------------------------------------
          E ------6--6-------------------------------------------------------
          B ------------------------------------------------------------------
          F#--4--------------------------------------------------------------
          A#-----------------------------------------------------------------


          C#---------------------------------------------------------------------------
          G#----------------------------------------------------------------------------
          E -----------------------------------------------------------------------------
          B -----------------------------------------------------------------------------
          F#-----------------------------------------------------------------------------
          A#--0-0-0-0-0-0-0-0-0-0-0-0-0-0-0-0--8-8-8-8-8-8-8-8-8-8-8-8-8-8-8-8-------  (start at "I still canít believe")

          C#----------------------------------------------------------------------------
          G#----------------------------------------------------------------------------
          E -----------------------------------------------------------------------------
          B -----------------------------------------------------------------------------
          F#-----------------------------------------------------------------------------
          A#--6-6-6-6-6-6-6-6-6-6-6-6-6-6-6-6--5-5-5-5-5-5-5-5-5-5-5-5-5-5-5-5----------     (x2)

          C#------------------------------------------------------------------------------
          G#------------------------------------------------------------------------------
          E --------------------------------------------------------------------------------
          B --------------------------------------------------------------------------------
          F#--------------------------------------------------------------0-2-4--5--------
          A#--0-0-0-0-0-0----0-0-0-0-0-0--0-0-0-0-0-0----0-0-0-0---------------------------
                         Trust!
          C#--------------------------------------------------------------------------------
          G#--------------------------------------------------------------------------------
          E ----------------------------------------------------------------------------------
          B ----------------------------------------------------------------------------------
          F#----------------------------------------------------------------------0-2-4--5---
          A#--0-0-0-0-0-0----0-0-0-0-0-0----0-0-0--0--0--0----0-0-0--0----------------------

          C#----------------------------------------------------------------------------------
          G#----------------------------------------------------------------------------------
          E -----------------------------------------------------------------------------------
          B -----------------------3--3--3------------------------3--3--3--------------------
          F#-----------------------------------------------------------------------------------
          A#--0-0-0--0--0--0----------------0-0-0--0--0--0----------------0-0-0--0--0--0-------
                               harm|------|                   harm|------|
          C#-------------------------------------------------------------------------------------
          G#-------------------------------------------------------------------------------------
          E --------------------------------------------------------------------------------------
          B ----3--3--3--------------------------------------------------------------------------
          F#---------------------------------0-2-4--5--------------------------------------------
          A#---------------0--0--0----0------------------0-0-0--0--0--0-------------------------
           harm|------|

I don't think I screwed up anything.  Enjoy!!!


Sevendust albums
2003 Seasons
2001 Animosity
1999 Home
1997 Sevendust
Animosity tabs
01Tits on a Boar tabbass tab
02Praise tabbass tab
03Trust tabbass tab
04Crucified tabbass tab
05Xmas Day tabbass tab
06Dead Set tabbass tab
07Shine tabbass tab
08Follow tabbass tab
09Damaged tabbass tab
10Live Again tabbass tab
11Beautiful tabbass tab
12Redefine tabbass tab
13Angel's Son tabbass tab

 

1