Search tabs:
Browse artists: 0-9 | A | B | C | D | E | F | G | H | I | J | K | L | M | N | O | P | Q | R | S | T | U | V | W | X | Y | Z
/ Sevendust / Home (1999) / Reconnect guitar tab

bandname: Sevendust

songname: Reconnect

tabtype: guitar

tab: Dadgbe

Riff1-Distortion
a-0222---0220333---
D-0222---0220333---
  ****   *******
Fill-wah wah
b-------2br-------
g-------2br--2b---
d-----------------
a-022202----------
D-022202----------
  ******
Riff2-Distortion
d------(3)-(3)------------
a-0222----------0220333---
D-0222----------0220333---
  ****          *******
Riff3(gtr1)-Distortion
g-----101010101010--10101010----7/99999--9999---
d------x-x-x-x-x-x---x-x-x-x----x--xxxx--xxxx---
a-0220-8-8-8-8-8-8---8-8-8-802205/77777--7777---
D-0220----------------------0220----------------
  ****                      ****
Riff3(gtr2)-Distortion
g-----777777--7777----7/99999--9\\777---
d-----xxxxxx--xxxx----x--xxxx--x--xx---
a-0220555555--555502205/77777--7\\555---
D-0220------------0220-----------------
  ****            ****
Fill-wah wah
d-----------2b---
a-022222---------
D-02222222-------
  ******
Riff4(gtr1)-phaser
g-7--7--7--7--7--7--7--7-7---  -7-7-7-7-7-7-7-7---

Riff4(gtr2)-clean
g-------------------------------7-------------------------0-----------
d-----------------------0---------0------0----0----0----7---------0---
a---------------------------------------------------------------------
D-2---0---8--\\5------2----0--8--------2----0----8----5---------2----0-

---7---
-0-0---
---x---
---8---

Riff4(gtr3)-Distortion
a-2--1--8--5------2--1--8---
D-2--1--8--5------2--1--8---

Riff5(gtr1)-wah wah
g-999999999999999977777777777777771010101010101010101010101010101012\\-
d-xxxxxxxxxxxxxxxxxxxxxxxxxxxxxxxx-x-x-x-x-x-x-x-x-x-x-x-x-x-x-x-x-x--
a-77777777777777775555555555555555-8-8-8-8-8-8-8-8-8-8-8-8-8-8-8-810\\-
D---------------------------------------------------------------------

-1010101010101010/12-121212/14-14\\-99999999999999997777777777777777
--x-x-x-x-x-x-x-------x-x-x-----x--xxxxxxxxxxxxxxxxxxxxxxxxxxxxxxxx
--8-8-8-8-8-8-8-8/10-101010/12-12\\-77777777777777775555555555555555

-1010101010101010101010101010101010/12-12121212121212/14-141414-14\\-
--x-x-x-x-x-x-x-x-x-x-x-x-x-x-x-x-x-----x-x-x-x-x-x-x-----x-x-x--x--
--8-8-8-8-8-8-8-8-8-8-8-8-8-8-8-8-8/10-10101010101010/12-121212-12\\-
--------------------------------------------------------------------

-------------------------------------------------7/999999999999999---
-------------------------------------------------x--xxxxxxxxxxxxxx---
-2222222222222222222222222222222-----------------5/777777777777777---
-222222222222222222222222222222202-02--02-020-2----------------------

Riff5(gtr2)-Distortion
g-4444444444444444----------------10101010101010101010101010101010----
d-xxxxxxxxxxxxxxxx-----------------x-x-x-x-x-x-x-x-x-x-x-x-x-x-x-x----
a-2222222222222222-----------------8-8-8-8-8-8-8-8-8-8-8-8-8-8-8-8----
D-----------------0000000000000000------------------------------------
                  ****************
-------------7---
-------------7---
-------------5---
-5555555555555---

Riff6-Distortion
g-7--7--7--7--7--77--77--7-----0---
d-5--7--5--7--7--77--75--7--8------
a---------------------------x------
D---------------------------8------

Riff7(gtr1)-Distortion
g-10/1212121212121212/14-141414-14\\-99999999999999999999999999999999
d--x----x-x-x-x-x-x-x-----x-x-x--x--xxxxxxxxxxxxxxxxxxxxxxxxxxxxxxxx-
a--8/1010101010101010/12-121212-12\\-77777777777777777777777777777777-

-1010101010101010101010101010
--x-x-x-x-x-x-x-x-x-x-x-x-x-x
--8-8-8-8-8-8-8-8-8-8-8-8-8-8

-1010101010101010101010/12-121212/14-14\\-
--x-x-x-x-x-x-x-x-x-x-x-----x-x-x-----x--
--8-8-8-8-8-8-8-8-8-8-8/10-101010/12-12\\-

-99999999999999999999999999999999---
-xxxxxxxxxxxxxxxxxxxxxxxxxxxxxxxx---
-77777777777777777777777777777777---

Riff7(gtr2)-Distortion
e-00000000000000000000000000000000000000000000000000000000000000000000
b-55555555555555555555555555555533333333333333335555555555555555555555

-0000000000000000000000000000
-5555555555555555555555555555

Riff8(gtr1)-Distortion
g-10101010--10101010--1010\\---------------------------------------
d--x-x-x-x---x-x-x-x---x-x--2222--2222--22--2222--2222--22--2222--
a--8-8-8-8---8-8-8-8---8-8\\-2222--2222--22--2222--2222--22--2222--
D---------------------------2222--2222--22--2222--2222--22--2222--

------------------------------------------------------------------
-2222--22--2222--2222--22--2222---2222--22--2222--2222--22--2222--
-2222--22--2222--2222--22--2222---2222--22--2222--2222--22--2222--
-2222--22--2222--2222--220-2222---2222--22--2222--2222--22--2222--

----------------------------
-2222--22--2222--2222--22---
-2222--22--2222--2222--22---
-2222--22--2222--2222--22---

Riff8(gtr2)-Distortion
e-0000--0000--00------------------------------------------------------
b-3333--3333--33------------------------------------------------------
g-----------------4444--4444--44--7777--7777--77--10101010--10101010--
d-----------------xxxx--xxxx--xx--xxxx--xxxx--xx---x-x-x-x---x-x-x-x--
a-----------------2222--2222--22--5555--5555--55---8-8-8-8---8-8-8-8--

----------------------------------------------------------------------
----------------------------------------------------------------------
-1010--10101010--10101010---1010--4444--4444--44--7777--7777--77--1010
--x-x---x-x-x-x---x-x-x-x----x-x--xxxx--xxxx--xx--xxxx--xxxx--xx---x-x
--8-8---8-8-8-8---8-8-8-8----8-8--2222--2222--22--5555--5555--55---8-8

------------------------------------------------------
------------------------------------------------------
-1010--10101010--1010--10--10101010--10101010--1010---
--x-x---x-x-x-x---x-x---x---x-x-x-x---x-x-x-x---x-x---
--8-8---8-8-8-8---8-8---8---8-8-8-----8-8-8-8---8-8---

Any questions or comment contact me at Slave66686@aol.com


Sevendust albums
2003 Seasons
2001 Animosity
1999 Home
1997 Sevendust
Home tabs
01Home tabbass tab
02Denial tabbass tab
03Headtrip tabbass tab
05Reconnect tabbass tab
06Waffle tabbass tab
07Rumble Fish tabbass tab
08Licking Cream tabbass tab
09Grasp tabbass tab
10Crumbled tabbass tab
11Feel So tabbass tab
13Bender tabbass tab

 

1