Search tabs:
Browse artists: 0-9 | A | B | C | D | E | F | G | H | I | J | K | L | M | N | O | P | Q | R | S | T | U | V | W | X | Y | Z
/ Sevendust / Home (1999) / Waffle guitar tab

 ----------------------------------------------------------------------------------------------

	     SONG: Waffle
	     BAND: Sevendust
	    ALBUM: Home
   TRANSCRIBED BY: Mitch Stevens

 ----------------------------------------------------------------------------------------------

	TUNING: tune all strings down 1.5 steps and
                then tune your 6th string down an additional
                1.5 steps, low to high it will be as
                follows (A#, F#, B, E, G#, C#)


        this song has two guitars so I'll do my best to show both guitar parts

      INTRO GUITAR 1:

            3x               1x                4x
     |----------------|-----------------|------------------|
     |----------------|-----------------|------0--------0--|
     |------4------4--|------4-------4--|----7--------7----|
     |----0-------0---|----0-------0----|------------------|
     |--4-------4-----|--2-------2------|--4--------4------|
     |----------------|-----------------|------------------|

      INTRO GUITAR 2:

      all of these notes are volume swells...you need to use
      the volume knobs on your guitar for this..a bit tricky at first but
      easy with a bit of practice

      guitar two comes in after guitar one has
      played the first part twice

     |---------------------------------------------------|
     |------9-------10/12---7---6---7---6------9-----12--|
     |---------------------------------------------------|
     |--3-------4---------------------------3-----4------|
     |----------------------4-------4--------------------|
     |---------------------------------------------------|

      FILL:

     |---------------------------------------------------|
     |---------------------------------------------------|  *** = some harmonics are played
     |---------------------------------------------------|  here around the 2nd and 3rd frets
     |---------------------------------------------------|
     |---------------------------------------------------|
     |--0----0-0-0-0----0-0-----0----0-0-0-0---0-0--***--|


      VERSE GUITAR 1:

     |-----------------|
     |------0-------0--|
     |----7-------7----|
     |-----------------|
     |--4-------4------|
     |-----------------|

      VERSE GUITAR 2:

      more volume swells....

     |---------------------------------------------------|
     |---------------------------------------------------|
     |---------------------------------------------------|    2x
     |---3----6----7------------4------------------------|   
     |----------------------------------------4----------|
     |---------------------------------------------------|

     |---------------------------------------------------|
     |---------------------------------------------------|
     |---------------------------------------------------|    1x
     |---3----6----7------------9------------------------|
     |---------------------------------------------------|
     |---------------------------------------------------|

      CHORUS: (arranged for one guitar)

     |-----------------------------------------------------------|
     |-----------------------------------------------------------|
     |----------------------------4/6---4------------------------|
     |-----------------------------------------------------------|
     |----------------------------2/4---2------------------------|
     |--0----0-0-0-0---0-0---0-0-------------4----5---1--1----1--|

     |----------------------------------------------------------------------------|
     |----------------------------------------------------------------------------|
     |-------------------------4/6--4---------------------------------------------|
     |-------------------------------------------------------3b-------------------|
     |-------------------------2/4--2------------------------3b-------------------|
     |---1-----1---1-1---1-1-------------4----5---1-1---1-1-------1----1-1---1-1--|


      Those are all the main parts in the song...just like in my
      other tab you're gonna have to figure out the rest yourself..good luck!












Sevendust albums
2003 Seasons
2001 Animosity
1999 Home
1997 Sevendust
Home tabs
01Home tabbass tab
02Denial tabbass tab
03Headtrip tabbass tab
05Reconnect tabbass tab
06Waffle tabbass tab
07Rumble Fish tabbass tab
08Licking Cream tabbass tab
09Grasp tabbass tab
10Crumbled tabbass tab
11Feel So tabbass tab
13Bender tabbass tab

 

1