Search tabs:
Browse artists: 0-9 | A | B | C | D | E | F | G | H | I | J | K | L | M | N | O | P | Q | R | S | T | U | V | W | X | Y | Z
/ Sevendust / Seasons (2003) / Burned Out guitar tab

Title: Burned Out
Album: Seasons
Artist: Sevendust

b- bend slightly
pm-palm mute

tuning A# f A# d g c


        b       b    bb        bb
A#--0---3-0---0-3-0--3-0-0-3-0-3-0-0-3-0----------] x1
f---------------------2---------2--------6666-3333]
A#------------------------------------------------]
d-------------------------------------------------]
g-------------------------------------------------]
c-------------------------------------------------]
                                       p.m  p.m

      b      b    bb        bb
--0---3-0--0-3-0--3-0-0-3-0-3-0-0-3-0----------] x4
--0-----0--0---0---20-0---0--20-0---0-6666-3333]
-----------------------------------------------]
-----------------------------------------------]
-----------------------------------------------]
-----------------------------------------------]
                                       p.m  p.m

chorus

 gtr 1                       listen to the song for the pattern's

      --------333333-5555555-111111]    gtr 2  -------------------]
      1111111-333333-5555555-111111]           ---12-12-12--12-12-]
      3333333-333333-5555555-111111]           --10---10---10-----]
      -----------------------------]           -10--------10------]
      -----------------------------]           -------------------]
      -----------------------------]           -------------------]



      b      b    bb        bb                               bb        bb
-0---3-0--0-3-0--3-0-0-3-0-3-0-0-3-0-----00-3-0-0-3-0-3-0-0-3-0-3-0-0-3-0---------]
------------------2---------2------------00---0-0---0--20-0---0--20-0----6666-3333]
----------------------------------------------------------------------------------]
----------------------------------------------------------------------------------]
----------------------------------------------------------------------------------]
----------------------------------------------------------------------------------]



      b      b    bb        bb
-00---3-0--0-3-0--3-0-0-3-0-3-0-0-3-0----------] x6
-00-----0--0---0---20-0---0--20-0---0-6666-3333]
-----------------------------------------------]
-----------------------------------------------]
-----------------------------------------------]
-----------------------------------------------]




chorus

 gtr 1

      --------333333-5555555-111111]    gtr 2  -------------------]
      1111111-333333-5555555-111111]           ---12-12-12--12-12-]
      3333333-333333-5555555-111111]           --10---10---10-----]
      -----------------------------]           -10--------10------]
      -----------------------------]           -------------------]
      -----------------------------]           -------------------]
      guitar 1 plays this once
      then on the second time it plays.


 gtr 1
      --------333333-5555555555-0]       gtr 2  -------------------]
      1111111-333333-5555555555-0]              ---12-12-12--12-12-]
      3333333-333333-5555555555-0]              --10---10---10-----]
      ---------------------------]              -10--------10------]
      ---------------------------]              -------------------]
      ---------------------------]              -------------------]



--0--2-00--0-3-0--3-00-0-3-0-3-00-0-3-0--------]gtr 1
-------------------2------2------------33333333]
-----------------------------------------------]
-----------------------------------------------]
-----------------------------------------------]
-----------------------------------------------]
                                        octave


------------------------------------------------]   gtr 2
----------------------------------------33333333]
------------------------------------------------]
------------------------------------------------]
------------------------------------------------]
------------------------------------------------]



gtr1

--0--2-00--0-3-0--3-00-0-3-0-3-00-0-3-0------------] x2
-------------------2------2------------------------]
---------------------------------------------------]
---------------------------------------------------]
---------------------------------------------------]
---------------------------------------------------]


gtr 2
-----------------------------------------------]
-----------------------------------------------]
------------------12---------12--12--10-10-----]
141414141414-141414141414--14-------14---14----]
-----------------------------------------------]
-----------------------------------------------]


gtr 1


0--2-00--0-3-0--3-00-0-3-0-3-00-0-3-0-]
-----------------2------2-------------]
--------------------------------------]
--------------------------------------]
--------------------------------------]
--------------------------------------]

gtr 2

---------------------------------------]
---------------------------------------]
-------12----12---------12-------------]
14141414141414-14141414141414-10-10----]
---------------------------------8--810]
---------------------------------------]



Ending



gtr 1

      --------333333-5555555-111111]    gtr 2  -------------------] x1
      1111111-333333-5555555-111111]           ---12-12-12--12-12-] then play what
      3333333-333333-5555555-111111]           --10---10---10-----]  is below
      -----------------------------]           -10--------10------]
      -----------------------------]           -------------------]
      -----------------------------]           -------------------]


gtr 1
      --------333333-5555555-]    gtr 2  -------------------]
      1111111-333333-5555555-]           ---12-12-12--12-12-]
      3333333-333333-5555555-]           --10---10---10-----]
      -----------------------]           -10--------10------]
      -----------------------]           -------------------]
      -----------------------]           -------------------]

                    repeat this pattern twice the finish up with this



    gtr 1

      --3-5---1]  --3-5]
      1-3--5--1]  1-3--]
      3-3---5-1]  3-3-5]
      ---------]  -----]
      ---------]  -----]
      ---------]  -----]


thats it.


Sevendust albums
2003 Seasons
2001 Animosity
1999 Home
1997 Sevendust
Seasons tabs
01Disease tabbass tab
02Enemy tabbass tab
03Seasons tabbass tab
04Broken Down tabbass tab
05Separate tabbass tab
06Honesty tabbass tab
07Skeleton Song tabbass tab
08Disgrace tabbass tab
09Burned Out tabbass tab
10Suffocate tabbass tab
12Face to Face tabbass tab

 

1