Search tabs:
Browse artists: 0-9 | A | B | C | D | E | F | G | H | I | J | K | L | M | N | O | P | Q | R | S | T | U | V | W | X | Y | Z
/ Sevendust / Seasons (2003) / Enemy guitar tab

Band:    Sevendust
Album:   Seasons
Single:  Enemy
Release: Oct 7th 2003
Tuning:  A E A D F# B
Tabber:  Korotz

intro
verse I
gII
-----------------------------------------------------------------------
-----------------------------------------------------------------------
-----------------------------------------------------------------------
-----------------------------------------------------------------------
-----------------------------------------------------------------------
-0-0-0-0---0-0---0---0-0-0--x0-0-0-0-----0-0-0-3-3-3-3-/-10-10-10-10---x1

-----------------------------------------------------------------------
-----------------------------------------------------------------------
-----------------------------------------------------------------------
-----------------------------------------------------------------------
-----------------------------------------------------------------------
-0-0-0-0---0-0---0---0-0-0--x0-0-0-0-----0-0-0-3-3-3-3-/-7-7-7-7-------x2


main
gI & II
-----------------------------------------------------------------------
-----------------------------------------------------------------------
-----------------------------------------------------------------------
-----------------------------------------------------------------------
-0-0-0-0---0-0---0---0-0-0--x0-0-0-0-----0-0-0-3-3-3-3-/-10-10-10-10---
-0-0-0-0---0-0---0---0-0-0--x0-0-0-0-----0-0-0-3-3-3-3-/-10-10-10-10---1x

-----------------------------------------------------------------------
-----------------------------------------------------------------------
-----------------------------------------------------------------------
-----------------------------------------------------------------------
-0-0-0-0---0-0---0---0-0-0--x0-0-0-0-----0-0-0-3-3-3-3-/-7-7-7-7-------
-0-0-0-0---0-0---0---0-0-0--x0-0-0-0-----0-0-0-3-3-3-3-/-7-7-7-7-------1x


verse I


chorus
gI
-----------------------------------------------------------------------
--------------------18-------------------18----------------------------
--17-17-17-17-17-17----17-17-17-17-17-17----17-17-17-17-17-17-17-17-17-
---x--x--x--x--x--x--------x--x--x--x--x--------x--x--x--x--x--x--x--x-
--15-15-15-15-15-15-------15-15-15-15-15-------15-15-15-15-15-15-15-15-
-----------------------------------------------------------------------1x

gII
-----------------------------------------------------------------------
-----------------------------------------------------------------------
-----------------------------------------------------------------------
--5-5-5-5-5-5-5-5-5-5-5-5-5-5------------------------------------------
--3-3-3-3-3-3-3-3-3-3-3-3-3-3-7-7-7-7-7-7-0-0-0-0-0-0-0-0-0-3-3-3-3----
------------------------------7-7-7-7-7-7-0-0-0-0-0-0-0-0-0-3-3-3-3----1x

gI
-----------------------------------------------------------------------
--------------------18-------------------18----17-17-17-18-18-18-18-18-
--17-17-17-17-17-17----17-17-17-17-17-17----17-17-17-17-17-17-17-17-17-
---x--x--x--x--x--x--------x--x--x--x--x--------x--x--x--x--x--x--x--x-
--15-15-15-15-15-15-------15-15-15-15-15-------15-15-15-15-15-15-15-15-
-----------------------------------------------------------------------1x

gII
-----------------------------------------------------------------------
-----------------------------------------------------------------------
-----------------------------------------------------------------------
--5-5-5-5-5-5-5-5-5-5-5-5-5--------------------------------------------
--3-3-3-3-3-3-3-3-3-3-3-3-3-7-7-7-7-8-8-8-8-8-8-8-8-8-8-8-8-8-0-0-0-0--
----------------------------7-7-7-7-8-8-8-8-8-8-8-8-8-8-8-8-8-0-0-0-0--1x



pre verse fill
gII
-----------------------------------------------------------------------
-----------------------------------------------------------------------
-----------------------------------------------------------------------
-----------------------------------------------------------------------
-----------------------------------------------------------------------
--0-0-0-0---0-0---0---0-0-0---x0-0-0-0---0-0---0---0-0-0---------------x2


verse II
gI & II
-----------------------------------------------------------------------
-----------------------------------------------------------------------
-----------------------------------------------------------------------
-----------------------------------------------------------------------
-0-0-0-0---0-0---0---0-0-0--x0-0-0-0-----0-0-0-3-3-3-3-/-10-10-10-10---
-0-0-0-0---0-0---0---0-0-0--x0-0-0-0-----0-0-0-3-3-3-3-/-10-10-10-10---

-----------------------------------------------------------------------
-----------------------------------------------------------------------
-----------------------------------------------------------------------
-----------------------------------------------------------------------
-0-0-0-0---0-0---0---0-0-0--x0-0-0-0-----0-0-0-3-3-3-3-/-7-7-7-7-------
-0-0-0-0---0-0---0---0-0-0--x0-0-0-0-----0-0-0-3-3-3-3-/-7-7-7-7-------


chorus 2x


bridge 1
gI
tremelo pick
--13~~~~~~~~~~~~~~~~~~-------------------------------------------------
-----------------------------------------------------------------------
-----------------------------------------------------------------------
-----------------------------------------------------------------------
-----------------------------------------------------------------------
-----------------------------------------------------------------------1x

gII
pm - - -  -  - - - -  -  - - - - - - -  - - - -  -
-----------------------------------------------------------------------
-----------------------------------------------------------------------
-----------------------------------------------------------------------
-----------------------------------------------------------------------
-0-0-0-0--0--0-0-0-0--0--0-0-0-0-0-0-0--0-0-0-0--0---------------------
-0-0-0-0--0--0-0-0-0--0--0-0-0-0-0-0-0--0-0-0-0--0---------------------1x

gI
tremelo pick
--13~~~~~~~~~~~~~~~~~~-------------------------------------------------
--17-------------------------------------------------------------------
-----------------------------------------------------------------------
-----------------------------------------------------------------------
-----------------------------------------------------------------------
-----------------------------------------------------------------------1x

gII
pm - - -  -  - - - -  -  - - - - - - -  - - - -  -
-----------------------------------------------------------------------
-----------------------------------------------------------------------
-----------------------------------------------------------------------
-----------------------------------------------------------------------
-0-0-0-0--0--0-0-0-0--0--0-0-0-0-0-0-0--0-0-0-0--0---------------------
-0-0-0-0--0--0-0-0-0--0--0-0-0-0-0-0-0--0-0-0-0--0---------------------1x


bridge 2
octave pedal
gI
---------------------------12~~~~~13-----------------------------------
-----------------------------------------------------------------------
------------3*^--------------------------------------------------------
-----------------------------------------------------------------------
-----------------------------------------------------------------------
--0-2.7*-0-------0-2.7*-0----------------------------------------------1x

gII
pm - - -  -  - - - -  -  - - - - - - -  - - - -  -
-----------------------------------------------------------------------
-----------------------------------------------------------------------
-----------------------------------------------------------------------
-----------------------------------------------------------------------
-0-0-0-0--0--0-0-0-0--0--0-0-0-0-0-0-0--0-0-0-0--0---------------------
-0-0-0-0--0--0-0-0-0--0--0-0-0-0-0-0-0--0-0-0-0--0---------------------1x

gI
------------------12~~~~~~~13~~~~~~~~15~~~~~~~~~-----------------------
-----------------------------------------------------------------------
------------3*^--------------------------------------------------------
-----------------------------------------------------------------------
-----------------------------------------------------------------------
--0-2.7*-0-------------------------------------------------------------

gII
pm - - -  -  - - - -  -  - - - - - - -  - - - -  -
-----------------------------------------------------------------------
-----------------------------------------------------------------------
-----------------------------------------------------------------------
-----------------------------------------------------------------------
-0-0-0-0--0--0-0-0-0--0--0-0-0-0-0-0-0--0-0-0-0--0---------------------
-0-0-0-0--0--0-0-0-0--0--0-0-0-0-0-0-0--0-0-0-0--0---------------------


chorus 2x

End
gI & II
-----------------------------------------------------------------------
-----------------------------------------------------------------------
-----------------------------------------------------------------------
-----------------------------------------------------------------------
--0-0-0-0---0-0---0---0-0-0---x0-0-0-0---0-0---0---0-0-0---------------
--0-0-0-0---0-0---0---0-0-0---x0-0-0-0---0-0---0---0-0-0---------------x2

thats! it


Sevendust albums
2003 Seasons
2001 Animosity
1999 Home
1997 Sevendust
Seasons tabs
01Disease tabbass tab
02Enemy tabbass tab
03Seasons tabbass tab
04Broken Down tabbass tab
05Separate tabbass tab
06Honesty tabbass tab
07Skeleton Song tabbass tab
08Disgrace tabbass tab
09Burned Out tabbass tab
10Suffocate tabbass tab
12Face to Face tabbass tab

 

1