Search tabs:
Browse artists: 0-9 | A | B | C | D | E | F | G | H | I | J | K | L | M | N | O | P | Q | R | S | T | U | V | W | X | Y | Z
/ Sevendust / Seasons (2003) / Face to Face guitar tab

SEVENDUST - FACE TO FACE                                                    bullet_trip@yahoo.com


Tuning: Drop B  (B F# B D# G# C#)


INTRO
|-----------------------------------------------------------------|
|-----------------------------------------------------------------|
|-0-0-------0---0-0-0---0-0-0---0---0-------0---0-0---0-----------|
| . .       .   . . .   . . .   .   .       .   . .   .
|
|-15----------15----------15----------15------15------15------15--|
|-----------------------------------------------------------------|
|-12----------12----------12----------12------12------12------12--|
|-----------------------------------------------------------------|
|-----------------------------------------------------------------|
|-----0-0-0-0-----0-0-0-0-----0-0-0-0-----0-0-----0-0-----0-0-----|
      . . . .     . . . .     . . . .     . .     . .     . .



MAIN
|----------------------------------------------------------------------------|
|----------------------------------------------------------------------------|
|-8-8-8-\\--------------------------------------------------------------------|
|----------------------------------------------------------------------------|
|-6-6-6-\\--------------------------------------------------------------------|
|-----------0-0---0---0-0-------0-0---0---0-0-------0-0---0---0-0------1-0---|
|           .                   .                   .
|
|-111111\\--------------------------------------------------------------------|
|----------------------------------------------------------------------------|
|-8-8-8-\\--------------------------------------------------------------------|
|----------------------------------------------------------------------------|
|----------------------------------------------------------------------------|
|-----------0-0---0---0-0-------0-0---0---0-0-------0-0---0---0-0------1-0---|
            .                   .                   .


|----------------------------------------------------------------------------|
|----------------------------------------------------------------------------|
|-8-8-8-\\--------------------------------------------------------------------|
|----------------------------------------------------------------------------|
|-6-6-6-\\------------------------------------------------------------6-------|
|-----------0-0---0---0-0-------0-0---0---0-0-------0-0---0----0-8-7---8-7-0-|
|           .                   .                   .
|
|-111111\\--------------------------------------------------------------------|
|----------------------------------------------------------------------------|
|-8-8-8-\\--------------------------------------------------------------------|
|----------------------------------------------------------------------------|
|-------------------------------------------------------------------6--------|
|-----------0-0---0---0-0-------0-0---0---0-0-------0-0---0---0-8-7---8-7-0--|

            .                   .                   .


VERSE
|-----------------------------------------------------------------|
|-----------------------------------------------------------------|
|-0-0-------0---0-0-0---0-0-0---0---0-------0---0-0---0-----------|
  . .       .   . . .   . . .   .   .       .   . .   .



CHORUS
|----------------------------------------------------------------|
|-7---------9----10--------------12------------------------------|
|----------------8---------------10---------------2--------------|
|-5---------7----8---------------10---------------2--------------|
|----------------8---------------10---------------2--------------|
|
|
|----------------------------------------------------------------|
|-7---------9----10--------------12---------------9--------------|
|----------------8---------------10------------------------------|
|-5---------7----8---------------10---------------7--------------|
|----------------8---------------10------------------------------|



|----------------------------------------------------------------|
|-7---------9----10--------------12------------------------------|
|----------------8---------------10---------------3------2-------|
|-5---------7----8---------------10---------------3------2-------|
|----------------8---------------10---------------3------2-------|
|
|
|----------------------------------------------------------------|
|-7---------9----10--------------12---------------10-----9-------|
|----------------8---------------10------------------------------|
|-5---------7----8---------------10---------------8------7-------|
|----------------8---------------10------------------------------|



(1:01 - Save Face...)
|---8------8------8------8--------------|
|---------------------------------------|
|---6------6------6------6--------------|
|-0------0------0------0-------1-1-1p0--|


MAIN


VERSE 2
|-----------------------------------------------------------------|
|-----------------------------------------------------------------|
|-7-7-7-7-7-7-7-7-7-7-7-7-7-7-7-7-7-7-7-7-7-7-7-7-7-7-7-7-7-7-7-7-|
|-----------------------------------------------------------------|
|-----------------------------------------------------------------|
|-----------------------------------------------------------------|
|
|
|-----------------------------------------------------------------|
|-----------------------------------------------------------------|
|-0-0-------0---0-0-0---0-0-0---0---0-------0---0-0---0-----------|
  . .       .   . . .   . . .   .   .       .   . .   .


|-----------------------------------------15-----15--16--15--16---|
|-----------------------------------------------------------------|
|-7-7-7-7-5-5-5-5-5-5-5-5-5-5-5-5-5-5-5-5-12-----12--13--12--13---|
|-----------------------------------------------------------------|
|-----------------------------------------------------------------|
|-----------------------------------------------------------------|
|
|
|-----------------------------------------------------------------|
|-----------------------------------------------------------------|
|-0-0-------0---0-0-0---0-0-0---0---0-------0---0-0---0-----------|
  . .       .   . . .   . . .   .   .       .   . .   .



|-----------------------------------------------------------------|
|-----------------------------------------------------------------|
|-0-0-------0---0-0-0---0-0-0---0---0-------0---0-0---0-----------|
| . .       .   . . .   . . .   .   .       .   . .   .
|
|-15----------15----------15----------15------15------15------15--|
|-----------------------------------------------------------------|
|-12----------12----------12----------12------12------12------12--|
|-----------------------------------------------------------------|
|-----------------------------------------------------------------|
|-----0-0-0-0-----0-0-0-0-----0-0-0-0-----0-0-----0-0-----0-0-----|
      . . . .     . . . .     . . . .     . .     . .     . .



|-----------------------------------------------------------------|
|-----------------------------------------------------------------|
|-0-0-------0---0-0-0---0-0-0---0---0-------0---0-0---0-----------|
| . .       .   . . .   . . .   .   .       .   . .   .
|
|---------15----------15----------10101010101010101313131313131313|
|-----------------------------------------------------------------|
|---------12----------12----------7-7-7-7-7-7-7-7-1010101010101010|
|-----------------------------------------------------------------|
|-----------------------------------------------------------------|
|-0-0-0-0-----0-0-0-0-----0-0-0-0---------------------------------|
  . . . .     . . . .     . . . .


CHORUS

SAVE FACE RIFF


MIDDLE
|-----------------------------------------------------------------|
|-----------------------------------------------------------------|
|-X-X-------X---X-X-X---X-X-X---X---X-------X---X-X---X-----------|


|-----------------------------------------------------------------|
|-----------------------------------------------------------------|
|-0-0-------X---X-X-X---X-X-X---X---X-------X---X-X---X-----------|
  . .

|----------------------------------------------------------5h6-7--|
|-----------------------------------------------------------------|
|-----------------------------------------------------------------|
|-0-0-------0---0-0-0---0-0-0---0---0-------0---0-0---0-----------|
  . .       .   . . .   . . .   .   .       .   . .   .

|-----------------------------------------------------------------|
|-----------------------------------------------------------------|
|-0-0-------0---0-0-0---0-0-0---0---0-------0---0-0---0-----------|
  . .       .   . . .   . . .   .   .       .   . .   .



HEAVY MIDDLE                                                    3X
|-----------------------------------------------------------------|
|-----------------------------------------------------------------|
|-----------------------------------------------------------------|
|-1-0--------0----0-1-0---0---0---0-------0-----0-0-1----5----0---|



|-------------------------------------------------5/7-7-7-7-7-7-7-|
|-----------------------------------------------------------------|
|-------------------------------------------------3/5-5-5-5-5-5-5-|
|-1-0--------0----0-1-0---0---0---0-------0----0------------------|



CHORUS

SAVE FACE RIFF

MAIN


Sevendust albums
2003 Seasons
2001 Animosity
1999 Home
1997 Sevendust
Seasons tabs
01Disease tabbass tab
02Enemy tabbass tab
03Seasons tabbass tab
04Broken Down tabbass tab
05Separate tabbass tab
06Honesty tabbass tab
07Skeleton Song tabbass tab
08Disgrace tabbass tab
09Burned Out tabbass tab
10Suffocate tabbass tab
12Face to Face tabbass tab

 

1