Search tabs:
Browse artists: 0-9 | A | B | C | D | E | F | G | H | I | J | K | L | M | N | O | P | Q | R | S | T | U | V | W | X | Y | Z
/ Sevendust / Sevendust (1997) / Bitch guitar tab

 ----------------------------------------------------------------------------------------------

	     SONG: Bitch
	     BAND: Sevendust
	    ALBUM: Sevendust
   TRANSCRIBED BY: Nick French (nwfrench@yahoo.com)
	     DATE: 7/10/00

 ----------------------------------------------------------------------------------------------

	TUNING: 1.5 steps below dropped-d (B F# B E G# C#)


     INTRO:

    |----------------------------------------------------------|
    |----------------------------------------------------------|
    |-5-5-5-5-5-5--5-5-5-5-5-5-5--77--8-8-8-8-8-8--------------|
    |-3-3-3-3-3-3--5-5-5-5-5-5-5--77--8-8-8-8-8-8--8-8-8-8-8-8-|
    |-3-3-3-3-3-3--3-3-3-3-3-3-3--55--6-6-6-6-6-6--8-8-8-8-8-8-|
    |----------------------------------------------8-8-8-8-8-8-|

     PRE-VERSE:

    |-------------------------|
    |-------------------------|
    |---7/8--7/8---7/8-7------|
    |---------------------6-5-|
    |---5/6--5/6---5/6-5--6-5-|
    |-0-----0-------------6-5-|

     VERSE: (palm muted)

    |---------------------------|
    |---------------------------|
    |---------------------------|
    |--0-2-0-2-3-0-2-0-2-0-2-3--|
    |--0-2-0-2-3-0-2-0-2-0-2-3--|
    |--0-2-0-2-3-0-2-0-2-0-2-3--|

    halfway through the verse it goes to this...

    |----------------------------|
    |----------------------------|
    |----------------------------|
    |--2p0h2-3-2--0-2-0-2-0-2-3--|
    |--2p0h2-3-2--0-2-0-2-0-2-3--|
    |-------------0-2-0-2-0-2-3--|

     OTHER RIFF:

    |--------------------------|
    |--------------------------| 
    |------5-7------5---7---8--|
    |------5-7------5---7---8--|
    |--0-0-3-5--0-0-3-0-5-0-6--|
    |--0-0------0-0---0---0----|





Sevendust albums
2003 Seasons
2001 Animosity
1999 Home
1997 Sevendust
Sevendust tabs
01Black tabbass tab
02Bitch tabbass tab
03Terminator tabbass tab
04Too Close To Hate tabbass tab
06Prayer tabbass tab
08Speak tabbass tab
11Born to Die tabbass tab

 

1