Search tabs:
Browse artists: 0-9 | A | B | C | D | E | F | G | H | I | J | K | L | M | N | O | P | Q | R | S | T | U | V | W | X | Y | Z
/ Sevendust / Sevendust (1997) / Black guitar tab

 ----------------------------------------------------------------------------------------------

	     SONG: Black
	     BAND: Sevendust
	    ALBUM: Sevendust
   TRANSCRIBED BY: Mike Mahon (the-anchor@home.com)
	     DATE: Unknown

 ----------------------------------------------------------------------------------------------

	TUNING: tune your guitar down one full step and then drop d (C,G,C,F,A,D)


     INTRO:

    D|---------------------------|
    A|---------------------------|
    F|---------------------------| 
    C|------------------0--------| 
    G|------------------------3--| 
    C|--0-0-0-0-0-0-0-0---0-0----|

     VERSE 1:

    D|--------------------|
    A|--------------------|
    F|--------------------|
    C|--x-x-0--0-0-0-0-0--|
    G|--x-x-0--0-0-0-0-0--|
    C|--x-x-0--0-0-0-0-0--|

     VERSE 2:

    D|--------------------------------------|
    A|--------------------------------------|
    F|--------------------------------------| 
    C|--0-1--------3-0--0-0-0-0--0-0-0-0-0--|
    G|--0-1--------3-0--0-0-0-0--0-0-0-0-0--|
    C|--0-1--------3-0--0-0-0-0--0-0-0-0-0--|
                        pm................

     CHORUS:

    D|-------------------------------------------|
    A|-------------------------------------------|
    F|-------------------------------------------|
    C|--12-12----12--12-12----8-8-x-x-8-x-8-x-8--|
    G|--12-12----12--12-12----8-8-x-x-8-x-8-x-8--|
    C|--12-12----12--12-12----8-8-x-x-8-x-8-x-8--|

    D|--------------------------------|
    A|--------------------------------|
    F|--------------------------------| 
    C|--3-5-x-x-5-x-5-x-5-x-5--10-12--| 
    G|--3-5-x-x-5-x-5-x-5-x-5--10-12--| 
    C|--3-5-x-x-5-x-5-x-5-x-5--10-12--|

     VERSE 3:

    D|-----------------------|
    A|-----------------------|
    F|-----------------------| 
    C|--10-x-10-x-10-x-8-10--|
    G|--10-x-10-x-10-x-8-10--|
    C|--10-x-10-x-10-x-8-10--|

     SOLO SCALE: (just improvise)

    D|------------------------------------9-12--|
    A|-------------------------------9-12-------|
    F|-----------------------9-11-12------------|
    C|-----------------10-12--------------------|
    G|--------10-11-12--------------------------|
    C|--12-15-----------------------------------|

     OUTRO:

    D|-------------------------|
    A|-------------------------|
    F|-------------------------| 
    C|---1-1-1--1--1-1--1-1-2--|
    G|---1-1-1--1--1-1--1-1-2--|
    C|---1-1-1--1--1-1--1-1-2--|



Sevendust albums
2003 Seasons
2001 Animosity
1999 Home
1997 Sevendust
Sevendust tabs
01Black tabbass tab
02Bitch tabbass tab
03Terminator tabbass tab
04Too Close To Hate tabbass tab
06Prayer tabbass tab
08Speak tabbass tab
11Born to Die tabbass tab

 

1