Search tabs:
Browse artists: 0-9 | A | B | C | D | E | F | G | H | I | J | K | L | M | N | O | P | Q | R | S | T | U | V | W | X | Y | Z
/ Slipknot / Iowa (2001) / People = Shit guitar tab

Slipknot - People = Shit
Tabbed By: Beeth
Email: markbeeth@hotmail.com

Tuning: Drop D (D A D G B E)




Slipknot - People = Shit
Iowa, Track 2.
Tabbed by: Beeth
Submitted by: Beeth
Email: markbeeth@hotmail.com

Legend :
b - Bend
rb - Release bend
m or . - Palm Mute
// - Slide
x -  Muted String
<> - Ghost Note (E.g. <7>)
h - Hammer on

Tuning - Drop D [D][A][D][G][B][E] (Low to High)
E[------------------------------------------------------------------------------]
B[------------------------------------------------------------------------------]
G[------------------------------------------------------------------------------]
D[------------------------------------------------------------------------------]
A[--6-5-0-0-3-2-0-0-6-5-0-0-3-2-0-0---1-1-1-1-----------------------------------]
D[--6-5-0-0-3-2-0-0-6-5-0-0-3-2-0-0---1-1-1-1-----------------------------------]
 Play this 1x (0:00 - 0:03)

E[------------------------------------------------------------------------------]
B[------------------------------------------------------------------------------]
G[------------------------------------------------------------------------------]
D[------------------------------------------------------------------------------]
A[------------------------------------------------------------------------------]
D[--0t-1t-0t-1t-7t-8t-3t-7t-----------------------------------------------------]
 Play this 1x (0:04 - 0:08)

E[----------------13b-rb--------------9b-rb-------------------------------------]
B[------------------------------------------------------------------------------]
G[------------------------------------------------------------------------------]
D[------------------------------------------------------------------------------]
A[-0-0-0-0-0--------------0-0-0-0-0---------------------------------------------]
D[-0-0-0-0-0--------------0-0-0-0-0---------------------------------------------]
 m m m m m              m m m m m
 Play this 1x (0:08 - 0:13)
E[----------------------------------|-------------------------------------------]
B[----------------------------------|-------------------------------------------]
G[----------------------------------|-------------------------------------------]
D[----------------------------------|-------------------------------------------]
A[----------------------------------|-------------------------------------------]
D[--0t-1t-0t-1t-7t-8t-3t-7t---------|-------0-1-0-0---8//1----------------------]
  Play this 2x  (0:14 - 0:23)     |  After second time, play this

E[------------------------------------------------------------------------------]
B[------------------------------------------------------------------------------]
G[------------------------------------------------------------------------------]
D[------------------------------------------------------------------------------]
A[------------------------------------------------------------------------------]
D[--0-1-0-0-1--0-1-0-0-4-----0-1-0-0-1--0-1-0-0-/9------0-0-0-0-----------------]
  Play this 1x (0:23 - 0:26)

E[------------------------------------------------------------------------------]
B[------------------------------------------------------------------------------]
G[------------------------------------------------------------------------------]
D[------------------------------------------------------------------------------]
A[--0-1-0-0-1--0-1-0-0-4--------------------------------------------------------]
D[--0-1-0-0-1--0-1-0-0-4--------------------------------------------------------]
  Play this 8x  (0:27 - 0:46)

E[------------------------------------------------------------------------------]
B[------------------------------------------------------------------------------]
G[------------------------------------------------------------------------------]
D[------------------------------------------------------------------------------]
A[--0-1-0-0-3-0-0-4-0-0-3-2-0-4-3-0-0-0-6-5-------------------------------------]
D[--0-1-0-0-3-0-0-4-0-0-3-2-0-4-3-0-0-0-6-5-------------------------------------]
 Play this 4x (0:47 - 1:02)

E[--5-5-5-5--7-7-7-7-5-5-5-5-5-3-3-3-3---|-3//10--------------------------------]
B[--x-x-x-x--x-x-x-x-x-x-x-x-x-x-x-x-x---|-x--x---------------------------------]
G[--3-3-3-3--5-5-5-5-3-3-3-3-3-1-1-1-1---|-1//8---------------------------------]
D[---------------------------------------|--------------------------------------]
A[---------------------------------------|--------------------------------------]
D[---------------------------------------|--------------------------------------]
 Play this 2x (1:02 - 1:10)             End of 2nd time, play this.

E[------------------------------------------------------------------------------]
B[------------------------------------------------------------------------------]
G[------------------------------------------------------------------------------]
D[------------------------------------------------------------------------------]
A[-0-1-0-0-1--0-1-0-0-4---------------------------------------------------------]
D[-0-1-0-0-1--0-1-0-0-4---------------------------------------------------------]
 Play this 4x (1:10 - 1:18)

E[------------------------------------------------------------------------------]
B[------------------------------------------------------------------------------]
G[------------------------------------------------------------------------------]
D[------------------------------------------------------------------------------]
A[-1-1-1-1-1---1-1-1-1-1--1-1--1-1-1-1-1--1-1-1-1-1-1-1-1-1-1-------------------]
D[-1-1-1-1-1---1-1-1-1-1--1-1--1-1-1-1-1--1-1-1-1-1-1-1-1-1-1---1//10//1--------]
 . . . . .   . . . . .  . .  . . . . .  . . . . . . . . . .
 Play once (1:18 - 1:26)
E[------------------------------------------------------------------------------]
B[------------------------------------------------------------------------------]
G[------------------------------------------------------------------------------]
D[------------------------------------------------------------------------------]
A[------------------------------------------------------------------------------]
D[-0-1-0-0-1--0-1-0-0-4---------------------------------------------------------]
 Play this 4x (1:26 - 1:34)

E[--5-5-5-5-5-7-7-7-7-7-5-5-5-3-3-3-3-------------------------------------------]
B[--x-x-x-x-x-x-x-x-x-x-x-x-x-x-x-x-x-------------------------------------------]
G[--3-3-3-3-3-5-5-5-5-5-3-3-3-1-1-1-1-------------------------------------------]
D[------------------------------------------------------------------------------]
A[------------------------------------------------------------------------------]
D[------------------------------------------------------------------------------]
  Play this 2x (1:35 - 1:41)

E[------------------------------------------------------------------------------]
B[------------------------------------------------------------------------------]
G[------------------------------------------------------------------------------]
D[------------------------------------------------------------------------------]
A[--0-0-7-1-//7/9---------------------------------------------------------------]
D[--0-0-7-1-//7/9---------------------------------------------------------------]
  Play this 8x (1:41 - 1:58)

E[----------|-------------------------------------------------------------------]
B[----------|-------------------------------------------------------------------]
G[----------|-------------------------------------------------------------------]
D[----------|-------------------------------------------------------------------]
A[----------|-0-0-0-0-0h1-0-0-0-0-0h1-------------------------------------------]
D[--8///1---|-0-0-0-0-0h1-0-0-0-0-0h1-------------------------------------------]
 1x (2:05)| Play this 2x (2:06 - 2:13)

E[------------------------------------------------------------------------------]
B[------------------------------------------------------------------------------]
G[------------------------------------------------------------------------------]
D[------------------------------------------------------------------------------]
A[--0h1-0h1-0h1-0h2---0h1-0h1-0h2-0-4-------------------------------------------]
D[--0h1-0h1-0h1-0h2---0h1-0h1-0h2-0-4-------------------------------------------]
  Play this 5x (2:13 - 2:33)

E[------------------------------------------------------------------------------]
B[------------------------------------------------------------------------------]
G[------------------------------------------------------------------------------]
D[------------------------------------------------------------------------------]
A[--0-0-0-0-0-0-0-0-0-0-0-0-0-0-0-0-0-------------------------------------------]
D[--0-0-0-0-0-0-0-0-0-0-0-0-0-0-0-0-0-------------------------------------------]
  . . . . . . . . . . . . . . . . .
  Play this once (2:33 - 2:)
E[------------------------------------------------------------------------------]
B[------------------------------------------------------------------------------]
G[------------------------------------------------------------------------------]
D[------------------------------------------------------------------------------]
A[------------------------------------------------------------------------------]
D[--<0>-<0>-<7>-<0>-<0>-<7>/<8>/<9>---------------------------------------------]
 Play this 4x (2:41 - 2:49)

E[------------------------------------------------------------------------------]
B[------------------------------------------------------------------------------]
G[------------------------------------------------------------------------------]
D[------------------------------------------------------------------------------]
A[------------------------------------------------------------------------------]
D[--0-0-7-0-0-7/8/9-------------------------------------------------------------]
 Play this 5x (2:50 - 2:57)

E[-----------------|------------------------------------------------------------]
B[-----------------|------------------------------------------------------------]
G[-----------------|------------------------------------------------------------]
D[-----------------|------------------------------------------------------------]
A[-----------------|-0-0-7-0-//7/9----------------------------------------------]
D[-1//8------------|-0-0-7-0-//7/9----------------------------------------------]
 Play once (3:00)| Play this 16x (3:00 - 3:31)

E[------------------------------------------------------------------------------]
B[------------------------------------------------------------------------------]
G[------------------------------------------------------------------------------]
D[------------------------------------------------------------------------------]
A[--6-5-0-0-3-2-0-0-6-5-0-0-3-2-0-0-1-1---1-------------------------------------]
D[--6-5-0-0-3-2-0-0-6-5-0-0-3-2-0-0-1-1---1-------------------------------------]
  Play this once (3:31 - End)

Credit to Slipknot for the great song, Enjoy!


Slipknot albums
2004 Vol. 3: The Subliminal Verses
2001 Iowa
2000 Slipknot
1997 Mate. Feed. Kill. Repeat
Iowa tabs
01(515) tabbass tab
02People = Shit tabbass tab
03Disasterpiece tabbass tab
04My Plague tabbass tab
05Everything Ends tabbass tab
06The Heretic Anthem tabbass tab
07Gently tabbass tab
08Left Behind tabbass tab
09The Shape tabbass tab
10I Am Hated tabbass tab
11Skin Ticket tabbass tab
12New Abortion tabbass tab
13Metabolic tabbass tab
14Iowa tabbass tab

 

1