Search tabs:
Browse artists: 0-9 | A | B | C | D | E | F | G | H | I | J | K | L | M | N | O | P | Q | R | S | T | U | V | W | X | Y | Z
/ Slipknot / Vol. 3: The Subliminal Verses (2004) / Duality guitar tab

Slipknot - Duality
Tabbed By: Mr.Luke
Email: lukethompson5@hotmail.com

Tuning: Drop B (B F# B E G# C#)



Tabbed by: Luke Thompson

If you have any questions,
or comments you can contact me at,
lukethompson5@hotmail.com

Band: Slipknot
Album: Vol.3: (The Subliminal Verses)
Song: Duality
Track#: 4
Track length: 4:12 min.

Gtr.1: Lead Guitar- Mick Thomson
Gtr.2: Rythme Guitar- Jim Root

Tuning: Drop B(B-F#-B-E-G#-C#)

Legends: b= Bend
         /= Slide up
         \= Slide down
         ~= Vibroto
      P.H.= Pinch Harmonic
      Pm.-= Palm mute
         x= Muted String
         += Two actions at once.
            Ex. b+P.H. is a bend with a P.H.
        ()= Hit note inside brakets softly
            Ex. (6) you would pick the 6th fret softly.


Intro.     Gtr.1&2 (with light distortion)
(0:02 min.)

C#|----------------------------------------------------------------||
G#|----------------------------------------------------------------||
 E|----------------------------------------------------------------||
 B|----------------------------------------------------------------||
F#|----------------------------------------------------------------||
 B|-0-0-0-0-0-0-0-0-0-0-0-0-0-0-0-3--3-3-3-3-3-3-3-6---------------||

C#|----------------||
G#|----------------||
 E|----------------||
 B|----------------||
F#|----------------||
 B|-6-1-1-1-1-1-1-0||Repeat

Chorus 1.  Gtr.1&2 (with heavey distortion)

C#|----------------------------------------------------------------||
G#|----------------------------------------------------------------||
 E|----------------------------------------------------------------||
 B|----------------------------------------------------------------||
F#|----------------------------------------------------------------||
 B|-0-0-0-0-0-0-0-0-0-0-0-0-0-0-0-3--3-3-3-3-3-3-6-----------------||

C#|--------------------------------||
G#|--------------------------------||
 E|--------------------------------||
 B|--------------------------------||
F#|--------------------------------||
 B|-(6)\1-1-1-1-3-1-0--------------||Repeat

Pre- Verse.Gtr.1&2

Rhy.Fig.1
C#|----------------------------------------------------------------||
G#|----------------------------------------------------------------||
 E|----------------------------------------------------------------||
 B|-0--0-0--0-0--0--0--0---0-----3---------0--0-0--0-0--0--0--0---0||
F#|-0--0-0--0-0--0--0--0---0-1-0-3-3b+P.H.-0--0-0--0-0--0--0--0---0||
 B|-0--0-0--0-0--0--0--0---0-1-0-3---------0--0-0--0-0--0--0--0---0||

C#|----------------||
G#|----------------||
 E|----------------||
 B|-----6\---------||
F#|-1-0-6\---------||
 B|-1-0-6\1~-------||End Rhy.Fig.1    Repeat

C#|------------------------------------------------||
G#|------------------------------------------------||
 E|------------------------------------------------||
 B|------------------------------------------------||
F#|-12-12-12---------------------------------------||
 B|----------7-7-7-10-10-10-5-5-5-5-5-7-7----------||
Pm. -- -- -- - - - -- -- -- - - - - - - -

C#|--------------------------------||
G#|--------------------------------||
 E|--------------------------------||
 B|--------------------------------||
F#|--------------------------------||
 B|-3-3-3-5-5-5-1-1-1-0-0-0-0-0-0-0||
Pm. - - - - - - - - - - - - - - - -

verse 1.   Gtr.1: Riff A(3x)
(0:53 min.)Gtr.2: Riff A(8x)

Riff A
C#|------------------------------------------------||
G#|------------------------------------------------||
 E|------------------------------------------------||
 B|------------------------------------------------||
F#|-12-12-12---------------------------------------||
 B|----------7-7-7-10-10-10-5-5-5-5-5-7-7----------||
Pm. -- -- -- - - - -- -- -- - - - - - - -

C#|--------------------------------||
G#|--------------------------------||
 E|--------------------------------||
 B|--------------------------------||
F#|--------------------------------||
 B|-3-3-3-5-5-5-1-1-1-0-0-0-0-0-0-0||End Riff A
Pm. - - - - - - - - - - - - - - - -

           Gtr.1:Riff B(3x)
Riff B
C#|----------------------------------------------------------------||
G#|----------------------------------------------------------------||
 E|----------------------------------------------------------------||
 B|----------------------------------------------------------------||
F#|-12-12-12-7-7-7-8-8-8-----------------8-8-8-10-10-10-8-8-8------||
 B|----------------------9-9-9-9-9-10-10---------------------------||

C#|----------------||
G#|----------------||
 E|----------------||
 B|----------------||
F#|-7-7-7-7-7-7-7--||
 B|----------------||End Riff B

Pre-Chorus.Gtr.1&2
(1:20 min.)

Rhy.Fig.2
C#|----------------------------------------------------------------||
G#|----------------------------------------------------------------||
 E|----------------------------------------------------------------||
 B|----------------------------------------------------------------||
F#|-3--3--3-3--3-3--3--3-3--3-3--3--3-3--3-2--2--1--1--------------||
 B|-3--3--3-3--3-3--3--3-3--3-3--3--3-3--3-2--2--1--1--------------||
Pm. -  -  - -  - -  -  - -  - -  -  - -  - -  -  -  -   End Rhy.Fig.2

Chorus 2.  Gtr.1&2
(1:23 min.)

Riff C
C#|----------------------------------------------------------------||
G#|----------------------------------------------------------------||
 E|----------------------------------------------------------------||
 B|----------------------------------------------------------------||
F#|----------------------------------------------------------------||
 B|-0-0-0-0-0-0-0-0-0-0-0-0-0-0-0-3--3-3-3-3-3-3-6-----------------||

C#|--------------------------------||
G#|--------------------------------||
 E|--------------------------------||
 B|--------------------------------||
F#|--------------------------------||
 B|-(6)\1-1-1-1-3-1-0--------------||End Riff C    Repeat

Interlude.
(1:36 min.)

Gtr.2 Riff A(1x)then
C#|------------------------------------------------||
G#|------------------------------------------------||
 E|------------------------------------------------||
 B|------------------------------------------------||
F#|-12-12-12---------------------------------------||
 B|----------7-7-7-10-10-10-5-5-5-5-5-7-7----------||
Pm. -- -- -- - - - -- -- -- - - - - - - -

Gtr.1
C#|----------------||
G#|----------------||
 E|----------------||
 B|----------------||
F#|----------------||
 B|-0-0-0-0-0------||
Pm. - - - - -

   Gtr.1   Gtr.1&2
C#|-------|---------||
G#|-------|---------||
 E|-------|---------||
 B|-------|---------||
F#|-17\12\|-3-5-1-0-||
 B|-17\12\|-3-5-1-0-||

Verse 2.
(1:43 min.)

Gtr.1 Riff A(2x)
Gtr.2 Riff A(4x)
Gtr.1 Riff B(2X)

Pre-Chorus 2.
(1:56 min.)

Gtr.1&2 Rhy.Fig.2.

Chorus 3.
(2:00 min.)

Gtr.1 Riff C(4x)
Gtr.2 Riff C(2x)

Riff D Gtr.2 Riff D(1x)
C#|------------------------------------------------||
G#|------------------------------------------------||
 E|-14--14\7--7/10--10/12--12/14--14/15--14~-------||
 B|--x---x\x--x/-x---x/-x---x/-x---x/-x---x~-------||
F#|-12--12\5--5/-8---8/10--10/12--12/13--12~-------||
 B|------------------------------------------------||

C#|------------------------------------------------||
G#|------------------------------------------------||
 E|-15--14\7--7/10--10/12--12/14--14/15--14~-------||
 B|--x---x\x--x/-x---x/-x---x/-x---x/-x---x~-------||
F#|-13--12\5--5/-8---8/10--10/12--12/13--12~-------||
 B|------------------------------------------------||End Riff D

Interlude.
(2:26 min.)

Gtr.1&2 Rhy.Fig.1

Bridge.
(2:36 min.)

Gtr.1&2
C#|----------------------------------------------------------------||
G#|----------------------------------------------------------------||
 E|----------------------------------------------------------------||
 B|-0--0-0--0-0--0--0--0---0-----3---------0--0-0--0-0--0--0--0---0||
F#|-0--0-0--0-0--0--0--0---0-1-0-3-3b+P.H.-0--0-0--0-0--0--0--0---0||
 B|-0--0-0--0-0--0--0--0---0-1-0-3---------0--0-0--0-0--0--0--0---0||

C#|----------------||
G#|----------------||
 E|----------------||
 B|----------------||
F#|-1-0------------||
 B|-1-0-6-6-6-3-3-3||
Pm.   - - - - - - -

C#|----------------||
G#|----------------||
 E|----------------||
 B|---1--1-1--1----||
F#|---1--1-1--1----||
 B|-6-1--1-1--1----||

Rhy.Fig.3
C#|----------------------------------------------------------------||
G#|----------------------------------------------------------------||
 E|----------------------------------------------------------------||
 B|-1--1--1--1------------------1--1-1--1-1--1--1--1---------------||
F#|-1--1--1--1----------3b+P.H.-1--1-1--1-1--1--1--1---------------||
 B|-1--1--1--1--1-3-1-3---------1--1-1--1-1--1--1--1--1-3-1-6\0----||
Pm.                 -                                     - End Rhy.Fig.3

C#|----------------||
G#|----------------||
 E|----------------||
 B|-1--1-1--1------||
F#|-1--1-1--1------||
 B|-1--1-1--1------||

Gtr.1&2 Rhy.Fig.3

Pre-Chorus 3.
(3:06 min.)

Gtr.1&2 Rhy.Fig.2

Gtr.1&2
C#|----------------------------------------------------------------||
G#|----------------------------------------------------------------||
 E|----------------------------------------------------------------||
 B|----------------------------------------------------------------||
F#|----------------------------------------------------------------||
 B|-0-0-0-3-3-3-1-1-1-5-5-5-3-3-7-7-12-12-12-7-7-7-10-10-10-9-9-9--||
Pm. - - - - - - - - - - - - - - - - -- -- -- - - - -- -- -- - - -

C#|----------------||
G#|----------------||
 E|----------------||
 B|----------------||
F#|----------------||
 B|-5-5-7----------||
Pm. - - -

Chorus 4.
(3:14)

Gtr.1 Riff C(4x)
Gtr.2 Riff C(2x)
Gtr.2 Riff D(1x)

Outro.
(3:40)

Gtr.1&2
C#|--------------------------------------------------------------------||
G#|--------------------------------------------------------------------||
 E|--------------------------------------------------------------------||
 B|-0--0-0----------0--0--0--0-----3---------0--0-0----------0--0--0--0||
F#|-0--0-0----------0--0--0--0-1-0-3-3b+P.H.-0--0-0----------0--0--0--0||
 B|-0--0-0--00--00--0--0--0--0-1-0-3---------0--0-0--00--00--0--0--0--0||

C#|----------------||
G#|----------------||
 E|----------------||
 B|----------------||
F#|-1-0------------||
 B|-1-0-6-6-6-3-3-3||
Pm.   - - - - - - -
            Half-Time Feel
C#|--------|--------||
G#|--------|--------||
 E|--------|--------||
 B|--------|--------||
F#|-1-1--1/|12------||
 B|-1-1--1/|12------||
Pm.   -

C#|----------------------------------------------------------------||
G#|----------------------------------------------------------------||
 E|----------------------------------------------------------------||
 B|--------------------------------3-------------------------------||
F#|-0--0-0--00--00--0--0--0--0-1-0-3-3bP.H.-0--0-0--00--00--0--0--0||
 B|-0--0-0--00--00--0--0--0--0-1-0-3--------0--0-0--00--00--0--0--0||
Pm.    - -  --  --  -  -  -                    - -  --  --  -  -  -

C#|----------------||
G#|----------------||
 E|----------------||
 B|-----------6\---||
F#|-(0)-0-1-0-6\---||
 B|-(0)-0-1-0-6\1~-||End Half-Time Feel
Pm.  -  - - -

C#|------------------------------------------------------------------||
G#|------------------------------------------------------------------||
 E|------------------------------------------------------------------||
 B|-0--0-0----------0--0--0--0-----3-------------0--0-0----------0--0||
F#|-0--0-0----------0--0--0--0-1-0-3-3bP.H.-(3)--0--0-0----------0--0||
 B|-0--0-0--00--00--0--0--0--0-1-0-3-------------0--0-0--00--00--0--0||

C#|----------------||
G#|----------------||
 E|----------------||
 B|-0--0-----6\----||
F#|-0--0-1-0-6\----||
 B|-0--0-1-0-6\1~--||End of Song(4:12 min.)
Pm.        -

Well there you go!
Enjoy!


Slipknot albums
2004 Vol. 3: The Subliminal Verses
2001 Iowa
2000 Slipknot
1997 Mate. Feed. Kill. Repeat
Vol. 3: The Subliminal Verses tabs
02The Blister Exists tabbass tab
03Three Nil tabbass tab
04Duality tabbass tab
05Opium of the People tabbass tab
06Circle tabbass tab
07Welcome tabbass tab
08Vermilion tabbass tab
09Pulse of the Maggots tabbass tab
10Before I Forget tabbass tab
11Vermilion, Pt. 2 tabbass tab
12The Nameless tabbass tab
13The Virus of Life tabbass tab
14Danger - Keep Away tabbass tab

 

1