Search tabs:
Browse artists: 0-9 | A | B | C | D | E | F | G | H | I | J | K | L | M | N | O | P | Q | R | S | T | U | V | W | X | Y | Z
/ Slipknot / Vol. 3: The Subliminal Verses (2004) / Pulse of the Maggots guitar tab

Tabbed by- 6Metal6Head6 (Taste_Me_Inside) [Aim and yahoo Convict31169]
Convict31169@hotmail.com for msn

4/18/04

89% Correct

Key:
Tuning=Dropped B-(low to high) B,F#,B,E,G#,C#
.=Palm Mute
*=Pinched Harmonic
B=Bend
Tr=Tremolo Pick(I Put This Cause The Strikes Are Usually To Fast To Count)
T=Tap With Finger Or Edge Of Pick
P=Pull off
/=Slide Towards Body
\=Slide Up Neck

Riff 1A
|--------------------------|
|--------------------------|
|--------------------------|
|-0-0----------------------|
|-0-0----------------------|
|-0-0--0-1-0Tr-0-0-0-3/12B-|
  . .  . . .   . . .
Riff 1B
|----------------------------|
|----------------------------|
|----------------------------|
|-0-0------------------------|
|-0-0------------------------|
|-0-0--0-1-0Tr-0-0-0-3/13P12-|
  . .  . . .   . . .

Riff 2A(Mick)
|---------------------------------|
|---------------------------------|
|---------------------------------|
|---------------------------------|
|---------------------------------|
|-8p7-8p7-8p7-8p7-8p7-8p7-8p7-8p7-|

Riff 2B(Jim)
|-------------------------------------------------|
|-------------------------------------------------|
|-15\14-15\14-15\14-15\14-15\14-15\14-15\14-15\14-|
|-------------------------------------------------|
|-13\12-13\12-13\12-13\12-13\12-13\12-13\12-13\12-|
|-------------------------------------------------|

Riff 3
|------------------------------------|
|------------------------------------|
|------------------------------------|
|-0-1-2---------------3-3-3-5-3-2----|
|-0-1-2---------------3-3-3-5-3-2----|
|-0-1-2--3Tr-4Tr-5Tr--3-3-3-5-3-2----|
  . . .  .   .   .    . . . . . .

Riff 1A
Riff 1B
Riff 1A
Riff 1B
Riff 1A
Riff 1B
Riff 1A
Riff 1B

Riff 4
|----------------------------|
|----------------------------|
|----------------------------|
|-6-5-6-3-5-3-0-3-0-0--------|
|-6-5-6-3-5-3-0-3-0-0--------|
|-6-5-6-3-5-3-0-3-0-0--------|
                  . .

Riff 5A
|-------------------------------------------------------|
|-------------------------------------------------------|
|-------------------------------------------------------|
|-0-0---------------------------------------------------|
|-0-0---------------------------------------------------|
|-0-0--0-1-0Tr-0--0-1-3-4-3-4-1-0--0-1-0Tr-0-0-0-3/12B--|
  . .  . . .   .                   . . .   . . .

Riff 5B
|---------------------------------------------------------|
|---------------------------------------------------------|
|---------------------------------------------------------|
|-0-0-----------------------------------------------------|
|-0-0-----------------------------------------------------|
|-0-0--0-1-0Tr-0--0-1-3-4-3-4-1-0---0-1-0Tr-0-0-0-3/13p12-|
  . .  . . .   .                    . . .   . . .


Riff 4
Riff 4
Riff 4
Riff 4

Riff 1A

Riff 5A
Riff 5B
Riff 5A
Riff 5B

Riff 4
Riff 4
Riff 4
Riff 4

Riff6
|-----------------------------------------------|
|-----------------------------------------------|
|-----------------------------------------------|
|-15Tr--14Tr--13Tr-14Tr-13Tr-9Tr----------------|
|-----------------------------------------------|
|-----------------------------------------------|

These Solo's Are ***in Crazy! I Got A lil Tiny Bit
Not Correct Completely But Hey Atleast I Tried lol.

Solo 1(Mick)
Solo 2(Jim) Vibrato ***
Solo 3(Mick)

Solo 3(Jim) Rythym ? lol
|-------------------------------------------------------------|
|-------------------------------------------------------------|
|-------------------------------------------------------------|
|-11p10-11p10-11p10-11p10-11p10-11p10-11p10-0-0-0-3-0-0-5-0-0-| ?
|-------------------------------------------0-0-0-3-0-0-5-0-0-|
|-------------------------------------------0-0-0-3-0-0-5-0-0-|
                                            . . . . . . . .

Solo 4(Jim) Start It With a Palm Muted Scale I Do My Own For This Solo

Solo 4(Jim) Part Of The Ending Thingy
|-T18p17p15-T18p17p15-T18p17p15-T18p17p15-T18p17p15-|
|---------------------------------------------------|
|---------------------------------------------------|
|---------------------------------------------------|
|---------------------------------------------------|
|---------------------------------------------------|


Riff 7
|--------------------------------|
|--------------------------------|
|--------------------------------|
|--------------------------------|
|--------------------------------|
|-0-0-0-3*--0-0-0-3*-0h1-0h2-0h3-|
  . . .     . . .


Riff 5A Ok This
Riff 5B Time
Riff 5A Tremolo Pick
Riff 5B Alot


Riff 4
Riff 4
Riff 4
Riff 4

Riff 6
Riff 6
Riff 6
Riff 6

Riff 7
|------------------------------------------|
|------------------------------------------|
|------------------------------------------|
|------------------------------------------|
|------------------------------------------|
|-0-0-0-3*--0-0-0-3*--0h1-0h2-0h3-0h1-0----|
  . . .     . . .

Crazy Soloing

Riff 8
|-------|
|-------|
|-------|
|-1-2-3-|
|-1-2-3-|
|-1-2-3-|
  . . .


YAY YOUR DONE!!! I'll Have A Recording Up Of Me
Doing This As An Example In A Couple Days.



Band:  Slipknot
Album: Vol. 3: The Subliminal Verses
Song:  Pulse of the Maggots

Copyright (c) Roadrunner 2004
Version 1.0 - 31/03/04

Transcribed By: Adam Wolf
Email:          ilovebukkake@hotmail.com

~ - Vibrato
. - Tremolo Pick
/ - Slide
p - Pull off
x - Palm Mute
ph. - Pinch Harmonic

Tuning: B F# B E G# C# (Drop-B)

INTRO
-------------------------------------------------------------------------------|
-------------------------------------------------------------------------------|
-------------------------------------------------------------------------------|
-------------------------------------------------------------------------------|
-------------------------------------------------------------------------------|
-0---0---------------0---1-1-1-1-0---0---0---3///////////13~~~~~---------------|
 x   x               x   x x x x x   x   x

-------------------------------------------------------------------------------|
-------------------------------------------------------------------------------|
-------------------------------------------------------------------------------|
-------------------------------------------------------------------------------|
-------------------------------------------------------------------------------|
-0---0---------------0---1-1-1-1-0---0---0---3///////////13p-12----------------|
 x   x               x   x x x x x   x   x

-------------------------------------------------------------------------------|
-------------------------------------------------------------------------------|
-----------------------------------------------------------------3-----4-----5-|
-----------------------------------------------------------------3-----4-----5-|
-13p-12--13p-12--13p-12--13p-12--13p-12--13p-12--13p-12--13------1-----2-----3-|
-------------------------------------------------------------------------------|
                                                                 x     x     x

-------------------------------------------------------------------------------|
-------------------------------------------------------------------------------|
-------------------------------------------------------------------------------|
-------------------------3-----3-----3-----4-----3-----1-----------------------|
-1-1-1---3-3-3---4-4-4---3-----3-----3-----4-----3-----1-----------------------|
-------------------------3-----3-----3-----4-----3-----1-----------------------|
 x x x   x x x   x x x   x     x     x     x     x     x

VERSE
-------------------------------------------------------------------------------|
-------------------------------------------------------------------------------|
-------------------------------------------------------------------------------|
-----------------------------------------------------0---1---3---4---3---1---0-|
-----------------------------------------------------0---1---3---4---3---1---0-|
-0---0---------------0---1-1-1-1-0---0---------------0---1---3---4---3---1---0-|
 x   x               x   x x x x x   x

-------------------------------------------------------------------------------|
-------------------------------------------------------------------------------|
-------------------------------------------------------------------------------|
-------------------------------------------------------------------------------|
-------------------------------------------------------------------------------|
-----0---1-1-1-1-0---0---0---3///////////13------------------------------------|
     x   x x x x x   x   x

-------------------------------------------------------------------------------|
-------------------------------------------------------------------------------|
-------------------------------------------------------------------------------|
-----------------------------------------------------0---1---3---4---3---1---0-|
-----------------------------------------------------0---1---3---4---3---1---0-|
-0---0---------------0---1-1-1-1-0---0---------------0---1---3---4---3---1---0-|
 x   x               x   x x x x x   x

-------------------------------------------------------------------------------|
-------------------------------------------------------------------------------|
-------------------------------------------------------------------------------|
-------------------------------------------------------------------------------|
-------------------------------------------------------------------------------|
-----0---1-1-1-1-0---0---0---3///////////13p-12--------------------------------|
     x   x x x x x   x   x

CHORUS
-------------------------------------------------------------------------------|
-------------------------------------------------------------------------------|
-------------------------------------------------------------------------------|
-6-----------5-------6---3-----------3-----------1---0-------------------------|
-6-----------5-------6---3-----------3-----------1---0-------------------------|
-6-----------5-------6---3-------5---3-------0---1p--0-------------------------|
                                 x           x

REFRAIN
Right Guitar
-------------------------------------------------------------------------------|
-------------------------------------------------------------------------------|
-------------------------------------------------------------------------------|
-------------------------------------------------------------------------------|
---------3-----------2-------3---0-------2---0---------------------------------|
-------------------------------------------------4-------1p--0-----------------|
         ................................................

Left Guitar
-------------------------------------------------------------------------------|
-------------------------------------------------------------------------------|
---------10----------9-------10--7-------9---7---------------------------------|
-------------------------------------------------9-----------------------------|
-------------------------------------------------------------------------------|
-------------------------------------------------------------------------------|
         ..............................................

SOLO BACKING
-------------------------------------------------------------------------------|
-------------------------------------------------------------------------------|
-3---5---3---6-----------------------------------------------------------------|
-2---4---2---5-----------------------------------------------------------------|
-1///3\\\1///4-------4---4---4---4---4---4---4---4---4---4---4-----------------|
-------------------------------------------------------------------------------|
                     x   x   x   x   x   x   x   x   x   x   x

-------------------------------------------------------------------------------|
-------------------------------------------------------------------------------|
-3---5---3---6-------------------------------3---------------------------------|
-2---4---2---5---------------0---------------2---------------------------------|
-1///3\\\1///4-------4---4---0---------------1-------1---1---1-----------------|
-----------------------------0-------0---0-------------------------------------|
                     x   x           x   x           x   x   x

-------------------------------------------------------------------------------|
-------------------------------------------------------------------------------|
-3---5---3---6---6-------6-------6-------6-------6-------6---------------------|
-2---4---2---5-------5-------5-------5-------5-------5-------5-----------------|
-1///3\\\1///4-----------------------------------------------------------------|
-------------------------------------------------------------------------------|

-------------------------------------------------------------------------------|
---------------------------------------------5~~~~~~~~~~~~~~~~~~~--------------|
-3---5---3---6-------------------------------3~~~~~~~~~~~~~~~~~~~--------------|
-2---4---2---5---------------0-------------------------------------------------|
-1///3\\\1///4-------4---4---0-------------------------------------------------|
-----------------------------0-------0---0-------------------------------------|
                     x   x           x   x

POST SOLO
-------------------------------------------------------------------------------|
-------------------------------------------------------------------------------|
-------------------------------------------------------------------------------|
-----1-----------------------------------------------1-------3-------4---------|
-----1-----------------------------------------------1-------3-------4---------|
-0---1---0---3~~~~~~-----0---0---0---0---3~~~~~~-----1-------3-------4---------|
 x       x   ph.         x   x   x   x   ph.


Slipknot albums
2004 Vol. 3: The Subliminal Verses
2001 Iowa
2000 Slipknot
1997 Mate. Feed. Kill. Repeat
Vol. 3: The Subliminal Verses tabs
02The Blister Exists tabbass tab
03Three Nil tabbass tab
04Duality tabbass tab
05Opium of the People tabbass tab
06Circle tabbass tab
07Welcome tabbass tab
08Vermilion tabbass tab
09Pulse of the Maggots tabbass tab
10Before I Forget tabbass tab
11Vermilion, Pt. 2 tabbass tab
12The Nameless tabbass tab
13The Virus of Life tabbass tab
14Danger - Keep Away tabbass tab

 

1