Search tabs:
Browse artists: 0-9 | A | B | C | D | E | F | G | H | I | J | K | L | M | N | O | P | Q | R | S | T | U | V | W | X | Y | Z
/ Slipknot / Vol. 3: The Subliminal Verses (2004) / Vermilion, Pt. 2 guitar tab

Tuning: B - E - A - D - F# - B

This song is pretty hard, but I think I have it mostly right, except for the bridge,
which I cannot figure out.

Verse:

Guitar One:
|------------------|
|------------------|
|6-8---------------|
|----7-6---------2-|
|----------------2-|
|----------------0-|

Guitar Two:
|------------------|
|------------------|
|6-6-6-6-----------|
|6-6-6-6-6-7-6-0-2-|
|4-4-4-4---4-4---2-|
|----------------0-|


Pre-Chorus:

Guitars One and Two:
|2---2---2---2---------|
|3---3---3---3---------|
|2---2---2---2---1-1-1-|
|----------------2-3-2-|
|----------------2-2-2-|
|----------------0-0-0-|
To Do... sick...


Chorus:

Guitar one:
|-------------------------|
|-------------------------|
|5-----4------------------|
|5-----4-----2-----5------|
|3-----2-----2-----5------|
|------------0-----3------|

Guitar Two:
|-3232--3232---3232--3232-|
|-------------------------|
|-------------------------|
|-------------------------|
|-------------------------|
|-------------------------|

Guitar Three:
|0-----7---8----7---------|
|-------------------------|
|-------------------------|
|-------------------------|
|-------------------------|
|-------------------------| You can listen closely to find this part and figure out the exact rhythm on your own.


Violin Melody in the Bridge:
|-----------------|-----------|
|-----------------|-----------|
|-----------------|-----------|
|2-4-5------------|-2----7--9-|
|------3-5--9-7-6-|-----------|
|-----------------|-----------|

I can't figure the bridge out, but this is a pretty good idea of the song.


Slipknot albums
2004 Vol. 3: The Subliminal Verses
2001 Iowa
2000 Slipknot
1997 Mate. Feed. Kill. Repeat
Vol. 3: The Subliminal Verses tabs
02The Blister Exists tabbass tab
03Three Nil tabbass tab
04Duality tabbass tab
05Opium of the People tabbass tab
06Circle tabbass tab
07Welcome tabbass tab
08Vermilion tabbass tab
09Pulse of the Maggots tabbass tab
10Before I Forget tabbass tab
11Vermilion, Pt. 2 tabbass tab
12The Nameless tabbass tab
13The Virus of Life tabbass tab
14Danger - Keep Away tabbass tab

 

1