Search tabs:
Browse artists: 0-9 | A | B | C | D | E | F | G | H | I | J | K | L | M | N | O | P | Q | R | S | T | U | V | W | X | Y | Z
/ / / guitar tab

this is one of the songs coming out on their new album

e:-------------------------------------------------------------------------------
B:-------------------------------------------------------------------------------
G:-------------------------------------------------------------------------------  intro
D:--------------6-6-6-6-6-6-6----------------------------------------------------
A:4-4-4-4-4-4-4-4-4-4-4-4-4-4-6-6-6-6-6-6-6-6-6/9-94----------------------------
E:2-2-2-2-2-2-2---------------4-4-4-4-4-4-4-4-4/7-72----------------------------
  P.M   P.M     P.M   P.M     P.M   P.M




                          PART OF THE SOLO
e:-------------------------------------------------------------------------------
B:-------------------------------------------------------------------------------
G:-------------------------------------------------------------------------------
D:--------------6^-4-6-4-4-6-4--4--4---------------------------------------------
A:------4-6-4-4----------------6----6-4------------------------------------------
E:2-4/6---------------------------------6-4-2------------------------------------

I WILL ADD THE REST OF THE SOLO WHEN I FIGURUE IT OUT AND THE REST OF THE SONG  BUT FOR NOW, THIS WILL HAVE TO DO

MY FIRST TAB SO IF YOU DONT LIKE IT EMAIL ME AT MANLOSTINSPACE16@AOL.COM

O YEA SOCIAL DISTORTIONS NEW CD COMES OUT SOON LATE  I JUST BOUT THE DVD AND THE SOLO IS DIFFERENT THEN ON THE DVD AND ON THE DVD THE SONG IS PLAYED W/ A CAPO THIS IS NOT........... THIS IS  JUST AN UPDATE


albums
tabs

 

1