Search tabs:
Browse artists: 0-9 | A | B | C | D | E | F | G | H | I | J | K | L | M | N | O | P | Q | R | S | T | U | V | W | X | Y | Z
/ Stevie Ray Vaughan / In Step (1989) / The House Is Rockin' guitar tab

Stevie Ray Vaughan - The House Is Rockin
Submitted By: shredfan
EMail: shredfan@yahoo.com


here are the tabs to SRV's "The House is a Rockin" i hope you enjoy it
e||---------|--------------------------------|
B||---------|--------------------------------|
G||---------|--------------------------------|
D||---------|--------------------------------|
A||--9/-10--|----10--10--10------10--12--10--|
E||--7/-8---|----8---11--8---12--8---8---8---|

e||----------------------------------|--------------------------------|
B||----------------------------------|--------------------------------|
G||------------------------------8---|--------------------------------|
D||------------------------------8---|--------------------------------|
A||--10--10------10--12--10------10--|----10--10--10------10--12--10--|
E||--11--8---12--8---8---8---12--8---|----8---11--8---12--8---8---8---|

e||----------------------------------|--------------------------------|
B||----------------------------------|--------------------------------|
G||------------------------------8---|--------------------------------|
D||------------------------------8---|--------------------------------|
A||--10--10------10--12--10------10--|----10--10--10------10--12--10--|
E||--11--8---12--8---8---8---12--8---|----8---11--8---12--8---8---8---|

e||----------------------------------|--------------------------------|
B||----------------------------------|--------------------------------|
G||------------------------------8---|--------------------------------|
D||------------------------------8---|--------------------------------|
A||--10--10------10--12--10------10--|----10--10--10------10--12--10--|
E||--11--8---12--8---8---8---12--8---|----8---11--8---12--8---8---8---|

e||----------------------------------|---------------------------------|
B||----------------------------------|---------------------------------|
G||------------------------------8---|-----------------------------8---|
D||------------------------------8---|-----------------8---8-------8---|
A||--10--10------10--12--10------10--|--10--10--12-----10--10--12--10--|
E||--11--8---12--8---8---8---12--8---|--8---8---8---8--8---8---8---8---|

e||------------------------------|---------------------------------|
B||------------------------------|---------------------------------|
G||----8-------------------------|-----------------------------8---|
D||----8----------8---8----------|-----------------8---8-------8---|
A||----10--12-----10--10--12-----|--10--10--12-----10--10--12--10--|
E||----8---8---8--8---8---8---8--|--8---8---8---8--8---8---8---8---|

e||------------------------------|----------------------------------|
B||------------------------------|----------------------------------|
G||----8-------------------------|------------------10--10------10--|
D||----8----------8---8----------|--12--12--14------12--12--14--12--|
A||----10--12-----10--10--12-----|--10--10--10--10--10--10--10--10--|
E||----8---8---8--8---8---8---8--|----------------------------------|

e||-------------------------------|----------------------------------|
B||-------------------------------|----------------------------------|
G||----------------10-------------|----------------------------------|
D||--------14--12--12--12--14-----|------------------8---8-------8---|
A||----10--10--10--10--10--10-----|--10--10--12--10--10--10--12--10--|
E||----------------------------8--|--8---8---8---8---8---8---8---8---|

e||-------------------------------|----------------------------------|
B||-------------------------------|----------------------------------|
G||-------------------------------|----------------------------------|
D||----8----------8---8-------8---|------------------8-----------8---|
A||----10--12-----10--10--12--10--|--10--10--12--10--10--10--12--10--|
E||----8---8---8--8---8---8---8---|--8---8---8---8---8---8---8---8---|

e||----------------------------------|----------------------------------|
B||----------------------------------|----------------------------------|
G||----------------------------------|----------------------------------|
D||------------------8-----------8---|------------------8-----------8---|
A||--10--10--12--10--10--10--12--10--|--10--10--12--10--10--10--12--10--|
E||--8---8---8---8---8---8---8---8---|--8---8---8---8---8---8---8---8---|

e||---------------------------------|----------------------------------|
B||---------------------------------|----------------------------------|
G||------------------------------8--|------------------8---8-------8---|
D||------------------8-----------8--|--10--10--12--10--10--10--12--10--|
A||--10--10--12--10--10--10--12--8--|--8---8---8---8---8---8---8---8---|
E||--8---8---8---8---8---8---8------|----------------------------------|

e||--------------------------------|--------------------------------|
B||--------------------------------|--------------------------------|
G||----8-----------8---------------|--------------------------------|
D||----10--12--10--10--10--12------|----------------8-----------8---|
A||----8---8---8---8---8---8---10--|----10--12--10--10--10--12--10--|
E||----------------------------8---|----8---8---8---8---8---8---8---|

e||--------------------------------|--------------------------------|
B||--------------------------------|--------------------------------|
G||--------------------------------|----------------10----------10--|
D||----------------8-----------12--|----12--14--12--12--12--14--12--|
A||----10--12--10--10--10--12--10--|----10--10--10--10--10--10--10--|
E||----8---8---8---8---8---8-------|--------------------------------|

e||--------------------------------|----------------------------------|
B||--------------------------------|----------------------------------|
G||----------------10--------------|----------------------------------|
D||----12--14--12--12--12--14------|------------------8---8-------8---|
A||----10--10--10--10--10--10--10--|--10--10--12--10--10--10--12--10--|
E||----------------------------8---|--8---8---8---8---8---8---8---8---|

e||-------------------------------|----------8--------8------|
B||-------------------------------|----------8--8-----8--8---|
G||-------------------------------|----10b------10b------10b-|
D||----8----------8---8---8---8---|--------------------------|
A||----10--12-----10--10--10--10--|--------------------------|
E||----8---8---8--8---8---8---8---|--------------------------|

e||----8--------8--------8--|--------8--------8--------|
B||----8--8-----8--8-----8--|--8-----8--8-----8--8-----|
G||-------10b------10b------|--10b------10b------10b---|
D||-------------------------|--------------------------|
A||-------------------------|--------------------------|
E||-------------------------|--------------------------|

e||--8--------8---------------|----------------------------|
B||--8--8-----8---------------|----------------------------|
G||-----10b------10r---8b-----|--8--10--10b-10~-----8------|
D||-----------------------10--|------------------------10--|
A||---------------------------|----------------------------|
E||---------------------------|----------------------------|

e||------------------------------|-----------------------------|
B||------------------------------|--8--8--------------------8--|
G||--8--10r---8----------10------|--8--9-----------------9-----|
D||--------------10----------10--|--------10------7--10--------|
A||------------------10----------|------------10---------------|
E||------------------------------|-----------------------------|

e||-----------------------------|----------------------------|
B||-----------------------------|----------------------------|
G||--10------8--9--------8b-10--|--10r---8------------8------|
D||------10----------10---------|----------------------------|
A||-----------------------------|-----------10~---10-----10--|
E||-----------------------------|----------------------------|

e||---------------------------|----------------------------|
B||---------------------------|------------8------8--------|
G||----10r---8--10--8b-----8--|------10b------10b------10b-|
D||--------------------10-----|----------------------------|
A||---------------------------|--10------------------------|
E||---------------------------|----------------------------|

e||----8--8---8--8---8--------|----11--11--11--11--11----11--|
B||----8--8---8--8---8--------|----11--11--11--11--11----11--|
G||-------10b----10b------10b-|----12--12--12--10b-12----10b-|
D||---------------------------|------------------------------|
A||---------------------------|------------------------------|
E||---------------------------|------------------------------|

e||--11--11--11------------------------|--------------------------------|
B||--11--11--11--11--11--11------------|--------11------11--11------11--|
G||--12--12--10--8---10--8b------------|--------10------10--10------10--|
D||------------------------------------|--------9-------9---9-------9---|
A||--------------------------10--8/10~-|----10------10----------10--10--|
E||------------------------------------|--------------------------------|

e||--------------------------------|---------------------------------|
B||----9---11--8---11--8---11/-13--|---------------------------------|
G||----10--10--10--10--10--10/-12--|---------------------------------|
D||----x---x---x---x---x-----------|-----------------8-----------8---|
A||----10--10--10--10--------------|--10-----12--10--10--10--12--10--|
E||--------------------------------|--8---8--8---8---8---8---8---8---|

e||-------------------------------||
B||-------------------------------||
G||-------------------------------||
D||----8-----------8------8---10--||
A||----10--12--10--10-----10--10--||
E||----8---8---8---8---8--8---8---||


Stevie Ray Vaughan albums
1997 Live at Carnegie Hall
1991 The Sky Is Crying
1989 In Step
1985 Soul to Soul
1984 Couldn't Stand the Weather
1983 Texas Flood
In Step tabs
01The House Is Rockin' tabbass tab
02Crossfire tabbass tab
03Tightrope tabbass tab
10Riviera Paradise tabbass tab

 

1