Search tabs:
Browse artists: 0-9 | A | B | C | D | E | F | G | H | I | J | K | L | M | N | O | P | Q | R | S | T | U | V | W | X | Y | Z
/ / / guitar tab

WATERFALL

(main riff)

capo 5th fret

e ----3-----------
B -----3----------
G ------0---------
D ----------------
A ----------3323--
E --3-------------

(interlude)

e --5--5--------5--5-----------------------------------
B --8-----8-----8-----8--------------------------------
G --7--------7--7--------7---7~--5~--2~--0~--------0~--
D --5-----------5----------------------------2p0~------
A --5-----------5--------------------------------------
E -----------------------------------------------------

e -------------------------------------------3--3--3--3--
B -------------------------------------------3--3--3--3--
G --2~--0~-------0~--2--4~--5--4--2--0-------5--5--5--5--
D ----------2p0~-----------------------------5--5--5--5--
A -------------------------------------3h5p3-------------
E -------------------------------------------------------

(lyrics) 

G
Chimes sing Sunday morn
Today's the day she's sworn

C			      Am
To steal what she never could own
And race from this hole she calls home

Now you're at the wheel
Tell me how does it feel
So good to have equalised
To lift up the lids of your eyes

As the miles they disapper
See land begin to clear
Free from the filth and the scum
This American satellite's won

C			   Am
She'll carry on through it all
She's a waterfall

See the steeple pine
The hills as old as time
Soon to be put to the test
To be whipped by the winds of the west

Stands on shifting sands
The scales held in her hands
The wind it just whips her and wails
And fills up her brigantine sails

She'll carry on through it all
She's a waterfall



WATERFALL
Tabbed by Alan Walker (u04aww@adbn.ac.uk)

capo on the 4th fret

Riff 1
 e-------------------------------------------------------------
B------3------------------------------------------------------
G---------2------p0---0----0--------------------------------
D---0--------0-----------4-----------------------------------
A-------------------------------------------------------------
E-------------------------------------------------------------

Play riff 1 8 times then

Riff 2
 e-------------------------------------------------------------
B-----3----------3----------3-----------3--------------------
G--------0----------0----------0-----------0-----------------
D--5---------4----------2----------2-------------------------
A-------------------------------------------------------------
E-------------------------------------------------------------

 e-------------------------------------0--0--0-----------------
B-----3----------3----------3--------3--3--3-----------------
G--------0----------0----------0-----0--0--0-----------------
D--5---------4----------2------------2--2--2-----------------
A-------------------------------------0--0--0-----------------
E--------------------------------------------------------------

Play riff 1 6 times then riff 2. Then riff 1 another 6 times followed by
riff 2.
This brings you to the chorus, play riff 1 twice then:

 e-------------------------------0-----------(0)-----------------
B-------1-------------1--------0-----------(3)------------------
G----------0-------------0-----0-----------(0)--------------Riff 1 (x2)
D-------------------------------2-----------(2)-----------------
A--3-------------2--------------------------(0)-----------------
E----------------------------------------------------------------
    She'll      carry on through it all
She's a Waterfall

Play this twice playing riff 1 twice while 'She's a Waterfall' is sung
Play the chord in brackets only the second time round.
If you listen to the song you'll get it

After the chorus play  the '6 riff 1's followed by riff 2' sequence
twice and go into the chorus again

Then enter into the guitar bit at the end:
 e---------------------------------------------------------------
B-------------------------------0-------------------------------
G------0---2-0-------0------------0--------2--0-----0---------
D----2---2------0h2----------------------0--------4---4-------
A---------------------------------------------------------------
E--0-----------------------3------------------------------------

 e-------------------------------------------------0--0----------
B-------------------------------------------------3-----3---3---
G------0---2-0-------0--------0-----------------2---------2----
D----2---2------0h2--------------4--2--0-------0---------0----
A--------------------------------------------4---0--------------
E--0-----------------------3------------------------------------


Repeat from here 2nd time
 e-0--0---------------------------------------(----------------------
B-3----3--3--------0-----------------------------------------------
G-2-------2---2b--0------------------------------------------------
D-0-------0--------0---2b---0-----------0---2b--0-----------0----
A-0------------------------------2h3-0--0------------2h3-0--0----
E--------------------------------------------------------------------

 e---------------------------------------------------------------------
B---------------------------------------------------------------------
G---------------------------------------------------------------------
D-2b--4--5--4--2p0------------0--0---0-0-----------0-0---0-0-----
A-----------------------2h3-0---0--0---0-0--2h3-0--0-0---0-0-----
E---------------------------------------------------------------------

 e------------------------------------------------------------------0--
B------------------------------------------------------------------3--
G--------------------------------------Repeat, 2nd time finish on--2--
D  ---------0--0---0-0------------0-------------------------------0--
A-2h3-0---0--0---0-0----2h3-0--0-------------------------------0--
E---------------------------------------------------------------------

 e-0-----------0--0---------(---------------------------------)--------
B---3--3------3----3--3----(----3---------------------------)--------
G------2------2-------2-----(------2---------0--0--0-----0-)--------
D------0------0-------0-----(0-----------0-------------4----)--------
A-------------0--------------(--------------------------------)--------
E----------------------------------------------------------------------

Repeat riff in brackets and fade out.


albums
tabs

 

1