Search tabs:
Browse artists: 0-9 | A | B | C | D | E | F | G | H | I | J | K | L | M | N | O | P | Q | R | S | T | U | V | W | X | Y | Z
/ Stratovarius / Infinite (2000) / Freedom guitar tab

Hope you like it enjoy !!

Tune Down 1/2 step!

  Intro (Keyboard & Guitar 1)
E---------------/9--11-9----------------/11--13-11--------------/9--11-9-----------|
B----/11--9-----------------/12--11--9--------------\\11--9-----------------\\12--11-|
G*-----------11---------------------------------------------11---------------------|
D*---------------------------------------------------------------------------------|
A----------------------------------------------------------------------------------|
E----------------------------------------------------------------------------------|

		   x2		  Intro (Guitar 2)
E------------------------------||--------------------------------------------------|
B-9-------------------|--------||--------------------------------------------------|
G----11---8----------*|--8~~---||--------------------------------------------------|
D--------------\\11~--*|--------||---------6---------8----------6---------4--4---/6-|
A---------------------|--------||---4-----4----6----6-----4----4----6----1--2---/4-|
E------------------------------||---2----------4----------2---------4--------------|

E----------------------------------------------------------------------------------|
B----------------------------------------------------------------------------------|
G----------------------------------------------------------------------------------|
D-----------------------------------/6---------------------------------------------|
A--\\-4------------------------------/4-4-4-4-4-4-4-4-4-4-4-4-4-4--\\6---------------|
E--\\-2-2-2-2-2-2-2-2-2-2-2-2-2-2-2--------------------------------\\4-4-4-4-4-4-4-4-|
      pm..........................|   pm........................|   pm.............

E----------------------------------------------------------------------------------|
B----------------------------------------------------------------------------------|
G----------------------------------------------------------------------------------|
D--------------/8-----------------------------------------------------------/6-----|
A--------------/6-6-6-6-6-6-6-6-6-6-6-6-6-6---\\4----------------------------/4-4-4-|
E-4-4-4-4-4-4---------------------------------\\2-2-2-2-2-2-2-2-2-2-2-2-2-2---------|
 pm...........|  pm........................|    pm........................|   pm...

E----------------------------------------------------------------------------------|
B----------------------------------------------------------------------------------|
G----------------------------------------------------------------------------------|
D----------------------------------------------------------------------------------|
A-4-4-4-4-4-4-4-4-4-4-4--\\6---------------------------/1-1-1-/2-2-2-2-2-2-2-2-/-4-4|
E------------------------\\4-4-4-4-4-4-4-4-4-4-4-4-4-4------------------------------|
 ......................|   pm......................................................

	     end Intro	 Verse 1
E---------------------||-----------------------------------------------------------|
B---------------------||-----------------------------------------------------------|
G---------------------||-----------------------------------------------------------|
D--------------/8~~---||--8-------8------------------------------------------------|
A-4-4-4-4-4-4--/6~~---||--6-------6-----\\6--------6-6--6--6--------6-6--8--/9------|
E---------------------||----------------\\4-4-4-4--4-4--4--4-4-4-4--4-4--6--/7----7-|
 ............|				  pm....|          pm....|

E----------------------------------------------------------------------------------|
B----------------------------------------------------------------------------------|
G----------------------------------------------------------------------------------|
D-------------6--8-----------------------------------------------------------------|
A-------6-8-9----6-6-6-6-6-6-6-6-6-6-6-6-6-6-6-6-6-6-6-6-6-6-6-6-6-6-6-6-6-6-6-6-6-|
E-6-7-9----------------------------------------------------------------------------|
		  pm...............................................................

						    Bridge			 Ch
E----------------------------------------------------------------------------------|
B--------------------------------------------------|---------------------------|---|
G--------------------------------------------------|---------------------------|---|
D--------------------------------------------------|--------3-----4-----6------|---|
A-6-6-6-6---\\6--------6-6--6--6--------6-6--8--/9--|--3-----1-----2-----4---\\--|--4|
E-----------\\4-4-4-4--4-4--4--4-4-4-4--4-4--6--/7-----1---------------------\\-----2|
 ........|    pm....|          pm....|

 orus
E----------------------------------------------------------------------------------|
B----------------------------------------------------------------------------------|
G----------------------------------------------------------------------------------|
D---6----6----8------6---4----------------6-----4--6----------6---6---8-----6---4--|
A---4----5----6------4---2-----4-----6----4-----4--4----\\4----4---5---6-----4---2--|
E------------------------------2-----4------------------\\2-------------------------|

E----------------------------------------------------------------------------------|
B---------------|----------------|-----------|----------|----------|---------------|
G---------------|--Repeat-Intro--|--Verse-2--|--Bridge--|--Chorus--|---------------|
D---6---/8~~----|----------------|-----------|----------|----------|-----------/6--|
A---4---/6~~----|----------------|-----------|----------|----------|--4\\---4-4-/4--|
E---------------------------------------------------------------------2\\---2-2-----|

								        Guitar Solo
E----------------------------------------------------------------------------------|
B-------------------------------------------------|-------------------|--/16~~---16|
G-------------------------------------------------|--Keyboard-Solo-1--|------------|
D------------/8--------------/6-------------------|-------------------|------------|
A--6\\----6-6-/6----4\\----4-4-/4----------4-6--8---|-------------------|------------|
E--4\\----4-4-------2\\----2-2------\\4-6-7-------------------------------------------|

 1
E-------------------------------------16-18-16-------------------------------------|
B-18-19-18-16-18-19-18-16-18-19\\18/19----------19-18-16\\15-16-18-16-15-------------|
G----------------------------------------------------------------------16-15-13-16-|
D----------------------------------------------------------------------------------|
A----------------------------------------------------------------------------------|
E----------------------------------------------------------------------------------|

E----------------------------------------------------------------------------------|
B----------------------------------------------------------------------------------|
G-15-13----------------13-15-16-15-13----------------13-15-16-15-13----------13-15~|
D-------16-15-13-15-16----------------16-15-13-15-16----------------13-15-16-------|
A----------------------------------------------------------------------------------|
E----------------------------------------------------------------------------------|

			      Guitar Solo 2
E------------------------------6-/-18-19--16-18--14~~--\\---------------------------|
B------|--------------------|-----------------------------16-18--14-16--12~~--\\----|
G~~-\\--|--Keyoboard-Solo-2--|------------------------------------------------------|
D------|--------------------|----------------------------------------------------13|
A------|--------------------|------------------------------------------------------|
E----------------------------------------------------------------------------------|

E-------------------------------------------------14-16-14----------------14-16-18~|
B----------------------------------------14-16-18----------18-16-14-16-18----------|
G-------13-15-13----------------13-15-16-------------------------------------------|
D-15-16----------16-15-13-15-16----------------------------------------------------|
A----------------------------------------------------------------------------------|
E----------------------------------------------------------------------------------|

			      Rhythm Guitar during Keyboard Solo 3
E~--\\------------------------------------------------------------------------------|
B-------|-------------------|------------------------------------------------------|
G-------|--Keyboard-Solo-3--|---8\\-----8----------------------------/6--6\\-----6--8|
D-------|-------------------|---6\\-----6--9\\-----9--9\\-----9-11\\----/4--5\\-----5--6|
A-------|-------------------|-------------7\\-----7--8\\-----8--9\\-------------------|
E----------------------------------------------------------------------------------|

E----------------------------------------------------------------------------------|
B---------------|----------|-------------------------------------------------------|
G\\--------------|--Chorus--|-------------------------------------------------------|
D\\--------6~~---|----------|---------6-----------8-----------6----------4--4---/6--|
A------6--4~~---|----------|---4-----4-----6-----6-----4-----4-----6----1--2---/4--|
E------4-----------------------2-----------4-----------2-----------4---------------|

E----------------------------------------------------------------------------------|
B----------------------------------------------------------------------------------|
G----------------------------------------------------------------------------------|
D-/11----------------------------/6------------------------------------------------|
A-/-9-9-9-9-9-9-9-9-9-9-9-9-9-9--/4-4-4-4-4-4-4-4-4-4-4-4-4-4--\\6------------------|
E--------------------------------------------------------------\\4-4-4-4-4-4-4-4-4-4|
     pm........................|   pm........................|   pm................

E----------------------------------------------------------------------------------|
B----------------------------------------------------------------------------------|
G----------------------------------------------------------------------------------|
D------------/8------------------------------------------------------------/6------|
A------------/6-6-6-6-6-6-6-6-6-6-6-6-6-6---\\4-----------------------------/4-4-4-4|
E-4-4-4-4-4---------------------------------\\2-2-2-2-2-2-2-2-2-2-2-2-2-2-----------|
 ..........|   pm........................|    pm.........................|   pm....

E-------------------------------------------Trem.pick-------------------||
B-----------------------------------------------/-----------------------||
G-----------------------------------------------/-----------------------|| end
D------------------------------4--4---6~~---\\---/-----------------------||
A-4-4-4-4-4-4-4---6--6--6--6---1--2---4~~--~\\---4~~-------4~~-----4-\\---||
E-----------------4--4--4--4--------------------2~~-------2~~-----2-\\---||
FreakMen


Stratovarius albums
2003 Elements, Pt. 2
2002 Elements, Pt. 1
2001 Intermission
2000 Infinite
1998 Destiny
1997 Visions
1996 Episode
1995 Fourth Dimension
1994 Dreamspace
1992 Twilight Time
1989 Fright Night
Infinite tabs
01Hunting High and Low tabbass tab
03Mother Gaia tabbass tab
04Phoenix tabbass tab
05Glory of the World tabbass tab
06A Million Light Years Away tabbass tab
07Freedom tabbass tab
08Infinity tabbass tab
09Celestial Dream tabbass tab

 

1