Search tabs:
Browse artists: 0-9 | A | B | C | D | E | F | G | H | I | J | K | L | M | N | O | P | Q | R | S | T | U | V | W | X | Y | Z
/ / / guitar tab

Artist: Sublime
Album: 40oz. to Freedom
Song: New Thrash
From: Justin Bortnicker

**normal tuning**    

Intro (Song starts on G(2))

Verse
D                           A
I got so much trouble on my mind,
                     F                            G 
That I feel like I'm always sleeping with the enemy
    D                     A
But I know the real world always gets the last word
           F                       G
And that's why you gotta kick reality.
         D            A
So don't tease me and try to say I should care.
  F                    G
I might as well go out for mine 

'cause everybody's going out for their's.

Solo

e|---------------------------------------|
B|---8^10--10--8--6--8^10--10-10--8--6---|
G|---------------------------------------|
D|---------------------------------------| repeated 3x more
A|---------------------------------------|
E|---------------------------------------|

^ = bend note up to 10.  Also all notes shown as 10 are 10 because of
bending the string from the 8th fret a whole step. So you actually don't
go to the 10th fret.

Verse 2(Same as above Chord Progression  D-A-F-G)
So don't tell me about a fake drug war
Go cut education some more
The people will one day learn and rise
Cause not everyone is out to score.

BreakCrazy Drum solo

Verse 3(Same Chords)
People always ask me why people are all fucked up
At every corner liquor store.
PEACE!!!

Chords Used
------------
   G(2) D  A   F  G
e|--3---5--5---8--10--|
B|--3---7--5--10--12--|
G|--4---7--6--10--12--|
D|--5---7--7--10--12--|
A|--5---5--7---8--10--|
E|--3------5----------|

If you have any suggestions, corrections of comments, Mail Me and I'll do what
i can. Thanx.




albums
tabs

 

1