Search tabs:
Browse artists: 0-9 | A | B | C | D | E | F | G | H | I | J | K | L | M | N | O | P | Q | R | S | T | U | V | W | X | Y | Z
/ Sugarcult / Start Static (2001) / Pretty Girl guitar tab

Song :pretty girl
            artist :sugar cult


    intro this tab is out to Steve who died this week of the 25 r.i.p  ring the  two it out it plz
                   ---------------------
                    -----------------------
                     -----6----------8-------
                     ---------8----------6-------
                      --------------------------
                       --------------------------

              verse is just the bass and then


                   ------6------6----6----6--
                    ------------7----7----7---
                     -----------8----9-----8--
                     --------------------------
                      --------------------------
                       --------------------------
               chorus
                            ----------------------------
                           -----------------------------
                           -----------------------------
                          ----2-2-2--00--2-2-2--------
                         ----2-2-2--00--2-2-2--------
                        ----2-2-2--00--2-2-2--------


Sugarcult albums
2004 Palm Trees and Power Lines
2001 Start Static
Start Static tabs
01You're the One tabbass tab
02Stuck in America tabbass tab
03Hate Every Beautiful Day tabbass tab
04Bouncing off the Walls tabbass tab
05Saying Goodbye tabbass tab
06Daddy's Little Defect tabbass tab
07Lost in You tabbass tab
08Pretty Girl (The Way I Love You) tabbass tab
09Crashing Down tabbass tab
10How Does It Feel tabbass tab
11I Changed My Name tabbass tab

 

1