Search tabs:
Browse artists: 0-9 | A | B | C | D | E | F | G | H | I | J | K | L | M | N | O | P | Q | R | S | T | U | V | W | X | Y | Z
/ System Of A Down / System Of A Down (1998) / Spiders guitar tab



        WWW.METALTABS.COM

          URL: www.metaltabs.com
	EMAIL: webmaster@metaltabs.com

 ----------------------------------------------------------------------------------------------

	     SONG: Spiders
	     BAND: System Of A Down
	    ALBUM: System Of A Down
   TRANSCRIBED BY: Adam Perlmutter
	     DATE: Unknown

 ----------------------------------------------------------------------------------------------

	TUNING: tune your guitar down one full step and then drop d (C,G,C,F,A,D)


     INTRO/VERSE:

    D|------------------------------|
    A|------------------------------|
    F|------------------------------|
    C|------------------------------|
    G|-----7----7----5----5----5----|
    C|--0-----0----0----0----0---0--|

    D|------------------------------|
    A|------------------------------|
    F|------------------------------|
    C|------------------------------|
    G|-----7----7----5----5----5----|
    C|--0-----0----0----0----0---0--|

    D|-------------------------------|
    A|-------------------------------|
    F|-------------------------------|
    C|-------------------------------|
    G|-----8----7----10----8----7-8--|
    C|--0-----0----0-----0----0------|

    D|------------------------------|
    A|------------------------------|
    F|------------------------------|
    C|------------------------------|
    G|-----7----7----5----5----5----|
    C|--0-----0----0----0----0---0--|

     CHORUS:

    D|-----------------------------------------|
    A|-----------------------------------------|
    F|-----------------------------------------|
    C|-----------------------------------------|
    G|--10--10--10--10-10-10-10-10--10--10-10--|
    C|--10--10--10--10-10-10-10-10--10--10-10--|

    D|-----------------------------------------------|
    A|-----------------------------------------------|
    F|-----------------------------------------------|
    C|-----------------------------------------------|
    G|--10-10-10-10-10--10-10--10-10-10-10-10-10-10--|
    C|--10-10-10-10-10--10-10--10-10-10-10-10-10-10--|

    D|----------------------------------|
    A|----------------------------------|
    F|-----14---12---15----14----12/14--|
    C|------x----x----x-----x-----x-----|
    G|-----12---10---13----12----10/12--|
    C|--0----------------0-----0--------|

    D|------------------------------------------|
    A|------------------------------------------|
    F|-----12---12/14--10-10-10-10-10-10-10-10--|
    C|------x----x------x--x--x--x--x--x--x--x--|
    G|-----10---10/12---8--8--8--8--8--8--8--8--|
    C|--0---------------------------------------|

    D|-----------------------------------------|
    A|-----------------------------------------|
    F|-----------------------------------------|
    C|-----------------------------------------|
    G|--10--10--10--10-10-10-10--10-10--10-10--|
    C|--10--10--10--10-10-10-10--10-10--10-10--|

    D|----------------------------------|
    A|----------------------------------|
    F|----------------------------------|
    C|----------------------------------|
    G|--8-8-8-8-8--8-8-7-7-7-7-7-7-7-7--|
    C|--8-8-8-8-8--8-8-7-7-7-7-7-7-7-7--|

     GUITAR SOLO: 

     hit each chord multiple times

    D|----------------------------------------------|
    A|----------------------------------------------|
    F|--14------15------18------14------15------18--|
    C|---x-------x-------x-------x-------x-------x--|
    G|--12------13------16------12------13------16--|
    C|----------------------------------------------|

     then play the chords below multiple times each, but 
     alternate between the note played by the first finger 
     and the note played by the third finger

    D|----------------------------------------------|              |---------------|
    A|----------------------------------------------|              |---------------|
    F|--19------20------18------19------20------18--|    for       |-----19----19--|
    C|---x-------x-------x-------x-------x-------x--|    example   |---------------|
    G|--17------18------16------17------18------16--|              |--17----17-----|
    C|----------------------------------------------|              |---------------|

     OUTRO:

    D|--------------------------------|
    A|--------------------------------|
    F|----10----9----12---10----9/10--|
    C|-----x----x-----x----x----x-----|
    G|-----8----7----10----8----7/-8--|
    C|--0-----0----0-----0----0-------|

    D|--------------------------------|
    A|--------------------------------|
    F|-----9----9/10---7----7----7-7--|
    C|-----x----x------x----x----x-x--|
    G|-----7----7/-8---5----5----5-5--|
    C|--0-----0-----------0---0-------|

    D|----------------------------------|
    A|----------------------------------|
    F|-----14---12---15----14----12/14--|
    C|------x----x----x-----x-----x-----|
    G|-----12---10---13----12----10/12--|
    C|--0----------------0-----0--------|

    D|---------------------|
    A|---------------------|
    F|-----12---12/14--10--|
    C|------x----x------x--|
    G|-----10---10/12---8--|
    C|--0------------------|




System Of A Down albums
2005 Mezmerize
2002 Steal This Album!
2001 Toxicity
1998 System Of A Down
System Of A Down tabs
01Suite-Pee tabbass tab
02Know tabbass tab
03Sugar tabbass tab
04Suggestions tabbass tab
05Spiders tabbass tab
06DDevil tabbass tab
07Soil tabbass tab
08War? tabbass tab
09Mind tabbass tab
10Peephole tabbass tab
11CUBErt tabbass tab
12Darts tabbass tab
13P.L.U.C.K. tabbass tab

 

1