Search tabs:
Browse artists: 0-9 | A | B | C | D | E | F | G | H | I | J | K | L | M | N | O | P | Q | R | S | T | U | V | W | X | Y | Z
/ System Of A Down / System Of A Down (1998) / Sugar guitar tab



        WWW.METALTABS.COM

          URL: www.metaltabs.com
	EMAIL: webmaster@metaltabs.com

 ----------------------------------------------------------------------------------------------

	     SONG: Sugar
	     BAND: System Of A Down
	    ALBUM: System Of A Down
   TRANSCRIBED BY: Mike Mahon (the-anchor@home.com) & Kenny Luong (commie@ratm.org)
	     DATE: Unknown

 ----------------------------------------------------------------------------------------------

	TUNING: tune your guitar down one full step and then drop d (C,G,C,F,A,D)


     INTRO/CHORUS:

    D|-----------|
    A|-----------|
    F|-----------|
    C|--0-7-6-5--|
    G|--0-7-6-5--|
    C|--0-7-6-5--|

     VERSE:

    D|-------13---13-12--------------10/------10/---|
    A|--10---------------13-----10------------------|
    F|----------------------------------------------|
    C|----------------------------------------------|
    G|----------------------------------------------|
    C|----------------------------------------------|

     BREAKDOWN:

    D|--------------|
    A|--------------|
    F|--------------|
    C|--1----1-0----|
    G|--1----1-0----|
    C|--1----1-0----|

     gradually get faster

    D|----------------------------|
    A|----------------------------|
    F|----------------------------|
    C|--1--1-1-1-1-1-0--0-0-0-0-0-|
    G|--1--1-1-1-1-1-0--0-0-0-0-0-|
    C|--1--1-1-1-1-1-0--0-0-0-0-0-|



System Of A Down albums
2005 Mezmerize
2002 Steal This Album!
2001 Toxicity
1998 System Of A Down
System Of A Down tabs
01Suite-Pee tabbass tab
02Know tabbass tab
03Sugar tabbass tab
04Suggestions tabbass tab
05Spiders tabbass tab
06DDevil tabbass tab
07Soil tabbass tab
08War? tabbass tab
09Mind tabbass tab
10Peephole tabbass tab
11CUBErt tabbass tab
12Darts tabbass tab
13P.L.U.C.K. tabbass tab

 

1