Search tabs:
Browse artists: 0-9 | A | B | C | D | E | F | G | H | I | J | K | L | M | N | O | P | Q | R | S | T | U | V | W | X | Y | Z
/ System Of A Down / Toxicity (2001) / ATWA guitar tab

Artist: System Of A Down
Album: Toxicity (2001)
Track: 9
Song: ATWA

Tuning: CGCFAD (Drop D and Full Step Down)

Transcribed by Tim Chambers

 Intro

  Gtr I
|-----------|-----------|-----------|------------|
|-----------|-----------|-----------|------------|
|---3----2--|---5----7--|---8----7--|---5----3---|
|-----------|-----------|-----------|------------|
|-----------|-----------|-----------|------------|
|-----------|-----------|-----------|------------|


|--------------|-----------|-----------|-----------||
|--------------|-----------|-----------|-----------||
|-(3)--3----2--|---5----7--|---8----7--|---5----3--||
|--------------|-----------|-----------|-----------||
|--------------|-----------|-----------|-----------||
|--------------|-----------|-----------|-----------||


   1st Verse
||---------------|-----------|-----------|-------------||
||o--------------|-----------|-----------|------------o||
||--(3)--3----2--|---5----7--|---8----7--|---5----3----||
||---------------|-----------|-----------|-------------||
||o--------------|-----------|-----------|------------o||
||---------------|-----------|-----------|-------------||


   Pre-Chorus
    Gtr II
    PM---------------------------------------------------------|
||--------------------------------|---------------------------------||
||o-------------------------------|--------------------------------o||
||--------------------------------|---------------------------------||
||--5-5-5-5-5-5-5--5-5-5-5-5-5-5--|-5-5-5-5-5-5-5--5-5-5-5-5-5-5----||
||o-5-5-5-5-5-5-5--5-5-5-5-5-5-5--|-5-5-5-5-5-5-5--5-5-5-5-5-5-5---o||
||--5-5-5-5-5-5-5--5-5-5-5-5-5-5--|-5-5-5-5-5-5-5--5-5-5-5-5-5-5----||


  Gtr I
|-------------|-------------|--------------|-------------|
|-------------|-------------|--------------|-------------|
|----3-----2--|----5-----7--|-----8-----7--|----5-----3--|
|-------------|-------------|--------------|-------------|
|-------------|-------------|--------------|-------------|
|-------------|-------------|--------------|-------------|
|
| Gtr II
| PM-----------------------------------------------|
|-------------|-------------|--------------|-------------|
|-------------|-------------|--------------|-------------|
|-------------|-------------|--------------|-------------|
|-------------|-------------|--------------|-------------|
|-------------|-------------|--------------|-------------|
|-5-----3-----|-7-----8-----|-10-----8-----|-7-----5-----|


|---------------|-------------|--------------|-------------||
|---------------|-------------|--------------|-------------||
|-(3)--3-----2--|----5-----7--|-----8-----7--|----5-----3--||
|---------------|-------------|--------------|-------------||
|---------------|-------------|--------------|-------------||
|---------------|-------------|--------------|-------------||
|
|  PM------------------------------------------------|
|---------------|-------------|--------------|-------------||
|---------------|-------------|--------------|-------------||
|---------------|-------------|--------------|-------------||
|---------------|-------------|--------------|-------------||
|---------------|-------------|--------------|-------------||
|--5------3-----|-7-----8-----|-10-----8-----|-7-----5-----||


   2nd Verse
||----------------|-------------|--------------|---------------||
||o---------------|-------------|--------------|--------------o||
||--(3)--3-----2--|----5-----7--|-----8-----7--|----5-----3----||
||----------------|-------------|--------------|---------------||
||o---------------|-------------|--------------|--------------o||
||----------------|-------------|--------------|---------------||
|
|    PM------------------------------------------------|
||----------------|-------------|--------------|---------------||
||o---------------|-------------|--------------|--------------o||
||----------------|-------------|--------------|---------------||
||----------------|-------------|--------------|---------------||
||o---------------|-------------|--------------|--------------o||
||---5------3-----|-7-----8-----|-10-----8-----|-7-----5-------||


   Pre-Chorus
    Gtr II
    PM-----------------------------------------------------------|
||--------------------------------|---------------------------------||
||o-------------------------------|--------------------------------o||
||--------------------------------|---------------------------------||
||--5-5-5-5-5-5-5--5-5-5-5-5-5-5--|-5-5-5-5-5-5-5--5-5-5-5-5-5-5----||
||o-5-5-5-5-5-5-5--5-5-5-5-5-5-5--|-5-5-5-5-5-5-5--5-5-5-5-5-5-5---o||
||--5-5-5-5-5-5-5--5-5-5-5-5-5-5--|-5-5-5-5-5-5-5--5-5-5-5-5-5-5----||


 Chorus
|---------------|---------------|---------------|------------------||
|---------------|---------------|---------------|------------------||
|---------------|---------------|---------------|------------------||
|-5--5--5-5-5-6-|-5--5--5-5-5-6-|-5--5--5-5-5-6-|-5--5--5-5-5-5-6--||
|-5--5--5-5-5-6-|-5--5--5-5-5-6-|-5--5--5-5-5-6-|-5--5--5-5-5-5-6--||
|-5--5--5-5-5-6-|-5--5--5-5-5-6-|-5--5--5-5-5-6-|-5--5--5-5-5-5-6--||


 Bridge
  Gtr II
   PM----------------------------------------------------
|---------------------------|---------------------------|
|---------------------------|---------------------------|
|---------------------------|---------------------------|
|---------------------------|---------------------------|
|---------------------------|---------------------------|
|--5------------3-----------|--7------------8-----------|
|
| Gtr III
|---------------------------|---------------------------|
|---------------------------|---------------------------|
|-12--12-12-12S10--10-10-10S|=14--14-14-14S15--15-15-15-|
|---------------------------|---------------------------|
|-10--10-10-10S=8---8--8--8S|=12--12-12-12S13--13-13-13-|
|---------------------------|---------------------------|


 --------------|
|----------------------------|
|----------------------------|
|----------------------------|
|----------------------------|
|----------------------------|
|-10------------8------------|
|
|----------------------------|
|----------------------------|
|-17--17-17-17S15--15-15-15S=|
|----------------------------|
|-15--15-15-15S13--13-13-13S=|
|----------------------------|


   PM-------------------------------------------------|
|---------------------------|--------------------------------------------------|
|---------------------------|--------------------------------------------------|
|---------------------------|--------------------------------------------------|
|---------------------------|--------------------------------------------------|
|---------------------------|--------------------------------------------------|
|--7------------5-----------|--5-----------------------3-----------------------|
|
|---------------------------|--------------------------------------------------|
|---------------------------|--------------------------------------------------|
|-14--14-14-14-12--12-12-12-|-12-12-12-12-12-12-12-12-10-10-10-10-10-10-10-10--|
|---------------------------|--------------------------------------------------|
|-12--12-12-12S10--10-10-10-|--------------------------------------------------|
|---------------------------|--------------------------------------------------|


   PM----------------------------------------------
|-------------------------------------------------|
|-------------------------------------------------|
|-------------------------------------------------|
|-------------------------------------------------|
|-------------------------------------------------|
|--7-----------------------8----------------------|
|
|-------------------------------------------------|
|-------------------------------------------------|
|-14-14-14-14-14-14-14-14-15-15-15-15-15-15-15-15-|
|-------------------------------------------------|
|-------------------------------------------------|
|-------------------------------------------------|


 -------------------------|
|-------------------------------------------------|
|-------------------------------------------------|
|-------------------------------------------------|
|-------------------------------------------------|
|-------------------------------------------------|
|-10-----------------------8----------------------|
|
|-------------------------------------------------|
|-------------------------------------------------|
|-17-17-17-17-17-17-17-17-15-15-15-15-15-15-15-15-|
|-------------------------------------------------|
|-------------------------------------------------|
|-------------------------------------------------|


                                                       3rd Verse
   PM---------------------|
|---------------------------------------------------||------------|-----------|
|---------------------------------------------------||o-----------|-----------|
|---------------------------------------------------||------------|-----------|
|---------------------------------------------------||--5----3----|-7----8----|
|-------------------------------------/12\----------||o-5----3----|-7----8----|
|--7-----------------------5----------/12\----------||--5----3----|-7----8----|
|
|---------------------------------------------------||------------|-----------|
|---------------------------------------------------||o-----------|-----------|
|-14-14-14-14-14-14-14-14-12-12-12-12--12--12-12-12-||------------|-----------|
|---------------------------------------------------||------------|-----------|
|---------------------------------------------------||o-----------|-----------|
|---------------------------------------------------||------------|-----------|


                                Pre-Chorus
                                 PM---------------------------|
                                                                4x
|------------|------------||-||---------------------------------||
|------------|-----------o||-||o-------------------------------o||
|------------|------------||-||---------------------------------||
|-10----8----|-7----5-----||-||--5-5-5-5-5-5-5--5-5-5-5-5-5-5---||
|-10----8----|-7----5----o||-||o-5-5-5-5-5-5-5--5-5-5-5-5-5-5--o||
|-10----8----|-7----5-----||-||--5-5-5-5-5-5-5--5-5-5-5-5-5-5---||


 Outro-Chorus
|---------------|---------------|---------------|-----------------*|
|---------------|---------------|---------------|-----------------*|
|---------------|---------------|---------------|-----------------*|
|-5--5--5-5-5-6-|-5--5--5-5-5-6-|-5--5--5-5-5-6-|-5--5--5-5-5-6---*|
|-5--5--5-5-5-6-|-5--5--5-5-5-6-|-5--5--5-5-5-6-|-5--5--5-5-5-6---*|
|-5--5--5-5-5-6-|-5--5--5-5-5-6-|-5--5--5-5-5-6-|-5--5--5-5-5-6---*|


System Of A Down albums
2005 Mezmerize
2002 Steal This Album!
2001 Toxicity
1998 System Of A Down
Toxicity tabs
01Prison Song tabbass tab
02Needles tabbass tab
03Deer Dance tabbass tab
04Jet Pilot tabbass tab
05X tabbass tab
06Chop Suey! tabbass tab
07Bounce tabbass tab
08Forest tabbass tab
09ATWA tabbass tab
10Science tabbass tab
11Shimmy tabbass tab
12Toxicity tabbass tab
13Psycho tabbass tab
14Aerials tabbass tab

 

1