Search tabs:
Browse artists: 0-9 | A | B | C | D | E | F | G | H | I | J | K | L | M | N | O | P | Q | R | S | T | U | V | W | X | Y | Z
/ System Of A Down / Toxicity (2001) / Toxicity guitar tab

TOXICITY
As recorded by System of a Down
From the 2001 Album TOXICITY

Words and Music by System of a Down
Transcribed by John Harag

Gtr I (C G C F A D) - 'Acoustic CGCFAD'
Gtr II (C G C F A D) - 'Clean CGCFAD'
Gtr III (C G C F A D) - 'Clean CGCFAD'
Gtr IV (C G C F A D) - 'Distotion CGCFAD'
Gtr V (C G C F A D) - 'Distotion CGCFAD'

 Intro
  Slowly Q.=82
 6/8
  Gtr III
  PM--------------------------------------------------------------------|
|----------------|----------------|--------------------|-------------------|
|----------------|----------------|--------------------|-------------------|
|----------------|----------------|--------------------|-------------------|
|----7----7----7-|----7----7----7-|-----10----10----10-|----10----10----10-|
|-5----5----5----|-5----5----5----|--/8-----8-----8----|--8-----8-----8----|
|----------------|----------------|--------------------|-------------------|
|
| Gtrs I, II
| PM--------------------------------------------------------------------|
|----------------|----------------|--------------------|-------------------|
|---10---10---10-|---10---10---10-|-----13----13----13-|----13----13----13-|
|-7----7----7----|-7----7----7----|-/10----10----10----|-10----10----10----|
|----------------|----------------|--------------------|-------------------|
|----------------|----------------|--------------------|-------------------|
|----------------|----------------|--------------------|-------------------|


  PM--------------------------------------------------------------------|
|----------------|-----------------|--------------------|-------------------||
|----------------|-----------------|--------------------|-------------------||
|----------------|-----------------|--------------------|-------------------||
|----7----7----7-|--8----8--7----7-|-----10----12----12-|-10----10--8----8--||
|-5----5----5----|----5-------5----|--/8-----8-----8----|-----8-------6-----||
|----------------|-----------------|--------------------|-------------------||
|
| PM--------------------------------------------------------------------|
|----------------|-----------------|--------------------|-------------------||
|---10---10---10-|-11---11-10---10-|-----13----15----15-|-13----13-11---11--||
|-7----7----7----|----7-------7----|-/10----10----10----|----10-------8-----||
|----------------|-----------------|--------------------|-------------------||
|----------------|-----------------|--------------------|-------------------||
|----------------|-----------------|--------------------|-------------------||


   Chorus 1 and 2
    $
    Gtrs IV, V
             PM----|
||---------|--------------|-----------|------------||
||o--------|--------------|-----------|-----------o||
||---------|--------------|-----------|------------||
||--0------|---------0----|-8---8-8-8-|-7---7-7-7--||
||o-0------|-3-2-0-2-0----|-8---8-8-8-|-7---7-7-7-o||
||--0------|-3-2-0-2-0----|-8---8-8-8-|-7---7-7-7--||


  PM----------------------------------------------|
|-------------------------|-------------------------|-----------|-----------|
|-------------------------|-------------------------|-----------|-----------|
|-------------------------|-------------------------|-----------|-----------|
|-------------------------|-------------------------|-8---8-8-8-|-7---7-7-7-|
|-3-2-0-2-0-0-3-2-0-2-0-0-|-3-2-0-2-0-0-3-2-0-2-0-0-|-8---8-8-8-|-7---7-7-7-|
|-3-2-0-2-0-0-3-2-0-2-0-0-|-3-2-0-2-0-0-3-2-0-2-0-0-|-8---8-8-8-|-7---7-7-7-|


           PM----|
|--------|--------------|-----------|-----------||
|--------|--------------|-----------|-----------||
|--------|--------------|-----------|-----------||
|-0------|---------0----|-8---8-8-8-|-7---7-7-7-||
|-0------|-3-2-0-2-0----|-8---8-8-8-|-7---7-7-7-||
|-0------|-3-2-0-2-0----|-8---8-8-8-|-7---7-7-7-||


 Verse 1 and 2
  Gtr III
|----------------|----------------|--------------------|--------------------|
|----------------|----------------|--------------------|--------------------|
|----------------|----------------|--------------------|--------------------|
|----7----7----7-|----7----7----7-|-----10----10----10-|----10----10----10--|
|-5----5----5----|-5----5----5----|--/8-----8-----8----|--8-----8-----8-----|
|----------------|----------------|--------------------|--------------------|
|
| Gtrs I, II
|----------------|----------------|--------------------|--------------------|
|---10---10---10-|---10---10---10-|-----13----13----13-|----13----13----13--|
|-7----7----7----|-7----7----7----|-/10----10----10----|-10----10----10-----|
|----------------|----------------|--------------------|--------------------|
|----------------|----------------|--------------------|--------------------|
|----------------|----------------|--------------------|--------------------|


|----------------|-----------------|--------------------|-------------------|
|----------------|-----------------|--------------------|-------------------|
|----------------|-----------------|--------------------|-------------------|
|----7----7----7-|--8----8--7----7-|-----10----12----12-|-10----10--8----8--|
|-5----5----5----|----5-------5----|--/8-----8-----8----|-----8-------6-----|
|----------------|-----------------|--------------------|-------------------|
|
|----------------|-----------------|--------------------|-------------------|
|---10---10---10-|-11---11-10---10-|-----13----15----15-|-13----13-11---11--|
|-7----7----7----|----7-------7----|-/10----10----10----|----10-------8-----|
|----------------|-----------------|--------------------|-------------------|
|----------------|-----------------|--------------------|-------------------|
|----------------|-----------------|--------------------|-------------------|


|----------------|----------------|--------------------|--------------------|
|----------------|----------------|--------------------|--------------------|
|----------------|----------------|------------9-------|-10--------9--------|
|----7----7----7-|----7----7----7-|-----10-------10----|----10-------10-----|
|-5----5----5----|-5----5----5----|--/8-----8--------8-|--------8--------8--|
|----------------|----------------|--------------------|--------------------|
|
|----------------|----------------|-----------12-------|-13-------12--------|
|---10---10---10-|---10---10---10-|-----13-------13----|----13-------13-----|
|-7----7----7----|-7----7----7----|-/10----10-------10-|-------10-------10--|
|----------------|----------------|--------------------|--------------------|
|----------------|----------------|--------------------|--------------------|
|----------------|----------------|--------------------|--------------------|


|----------------|-----------------|--------------------|-------------------|
|----------------|-----------------|--------------------|-------------------|
|----------------|-----------------|--------------------|-------------------|
|----7----7----7-|--8----8--7----7-|-----10----12----12-|-10----10--8----8--|
|-5----5----5----|----5-------5----|--/8-----8-----8----|-----8-------6-----|
|----------------|-----------------|--------------------|-------------------|
|
|----------------|-----------------|--------------------|-------------------|
|---10---10---10-|-11---11-10---10-|-----13----15----15-|-13----13-11---11--|
|-7----7----7----|----7-------7----|-/10----10----10----|----10-------8-----|
|----------------|-----------------|--------------------|-------------------|
|----------------|-----------------|--------------------|-------------------|
|----------------|-----------------|--------------------|-------------------|


|--------------------|--------------------|
|--------------------|--------------------|
|--------------------|--------------------|
|----7--------7----7-|----7--------7----7-|
|-5------5------5----|-5------5------5----|
|--------------------|--------------------|
|
|--------------------|--------------------|
|---10-------10---10-|---10-------10---10-|
|-7------7------7----|-7------7------7----|
|--------------------|--------------------|
|--------------------|--------------------|
|--------------------|--------------------|
|
| Gtrs IV, V
| PM---------------------------------------
|--------------------|--------------------|
|--------------------|--------------------|
|--------------------|--------------------|
|--------------------|--------------------|
|-0--0-0---0--0-0--0-|-0--0-0---0--0-0--0-|
|-0--0-0---0--0-0--0-|-0--0-0---0--0-0--0-|


|------------------------|-----------------------|
|------------------------|-----------------------|
|----------------9-------|-10------------9-------|
|-----10-----------10----|----10-----------10----|
|--/8-------8----------8-|----------8----------8-|
|------------------------|-----------------------|
|
|---------------12-------|-13-----------12-------|
|-----13-----------13----|----13-----------13----|
|-/10------10---------10-|---------10---------10-|
|------------------------|-----------------------|
|------------------------|-----------------------|
|------------------------|-----------------------|
|
|---------------------------------------------|
|------------------------|-----------------------|
|------------------------|-----------------------|
|------------------------|-----------------------|
|------------------------|-----------------------|
|---3--3-3----3--3--3--3-|--3--3-3----3--3--3--3-|
|---3--3-3----3--3--3--3-|--3--3-3----3--3--3--3-|


|--------------------|---------------------|
|--------------------|---------------------|
|--------------------|---------------------|
|----7--------7----7-|--8------8----7----7-|
|-5------5------5----|----5-----------5----|
|--------------------|---------------------|
|
|--------------------|---------------------|
|---10-------10---10-|-11-----11---10---10-|
|-7------7------7----|----7-----------7----|
|--------------------|---------------------|
|--------------------|---------------------|
|--------------------|---------------------|
|
| PM----------------------------------------
|--------------------|---------------------|
|--------------------|---------------------|
|--------------------|---------------------|
|--------------------|---------------------|
|-0--0-0---0--0-0--0-|--0-0-0----0--0-0--0-|
|-0--0-0---0--0-0--0-|--0-0-0----0--0-0--0-|


                                        D.S.
|------------------------|--------------------||
|------------------------|--------------------||
|------------------------|--------------------||
|-----10--------12----12-|-10----10--8----8---||
|--/8-------8-------8----|-----8-------6------||
|------------------------|--------------------||
|
|------------------------|--------------------||
|-----13--------15----15-|-13----13-11---11---||
|-/10------10------10----|----10-------8------||
|------------------------|--------------------||
|------------------------|--------------------||
|------------------------|--------------------||
|
|                           <
|----------------------------------------|
|------------------------|--------------------||
|------------------------|--------------------||
|------------------------|--------------------||
|------------------------|--------------------||
|---3--3-3----3--3--3--3-|--3--3--3--3-3--3---||
|---3--3-3----3--3--3--3-|--3--3--3--3-3--3---||


   Chorus 3
    Gtrs IV, V
             PM----|
||---------|--------------|-----------|------------||
||o--------|--------------|-----------|-----------o||
||---------|--------------|-----------|------------||
||--0------|---------0----|-8---8-8-8-|-7---7-7-7--||
||o-0------|-3-2-0-1-0----|-8---8-8-8-|-7---7-7-7-o||
||--0------|-3-2-0-1-0----|-8---8-8-8-|-7---7-7-7--||


  PM----------------------------------------------|
|-------------------------|-------------------------|-----------|-----------|
|-------------------------|-------------------------|-----------|-----------|
|-------------------------|-------------------------|-----------|-----------|
|-------------------------|-------------------------|-8---8-8-8-|-7---7-7-7-|
|-3-2-0-2-0-0-3-2-0-2-0-0-|-3-2-0-2-0-0-3-2-0-2-0-0-|-8---8-8-8-|-7---7-7-7-|
|-3-2-0-2-0-0-3-2-0-2-0-0-|-3-2-0-2-0-0-3-2-0-2-0-0-|-8---8-8-8-|-7---7-7-7-|


           PM----|
|--------|--------------|-----------|-----------||
|--------|--------------|-----------|-----------||
|--------|--------------|-----------|-----------||
|-0------|---------0----|-8---8-8-8-|-7---7-7-7-||
|-0------|-3-2-0-1-0----|-8---8-8-8-|-7---7-7-7-||
|-0------|-3-2-0-1-0----|-8---8-8-8-|-7---7-7-7-||


 Interlude
                                              ~
|---------------------------|-------------------|
|---------------------------|-------------------|
|---------------------------|-------------------|
|-0-0-0-0-0-3-0-0-2-(2)b2.5-|-0-0-0-0-0-3-0-0-2-|
|---------------------------|-------------------|
|---------------------------|-------------------|


|---------------------------|--------------------|
|---------------------------|--------------------|
|---------------------------|--------------------|
|-0-0-0-0-0-3-0-0-2-(2)b2.5-|-0-0-0-0-0-3-0-0-2\-|
|---------------------------|--------------------|
|---------------------------|--------------------|


    PM----------------------------------------------|
||--------------------------|---------------------------||
||o-------------------------|--------------------------o||
||--------------------------|---------------------------||
||--------------------------|---------------------------||
||o-3-0-0-0-0-0-3-0-0-0-0-0-|-3-0-0-0-0-0-3-0-0-0-0-0--o||
||--3-0-0-0-0-0-3-0-0-0-0-0-|-3-0-0-0-0-0-3-0-0-0-0-0---||


    PM------------|             PM------------|
||----------------------------|----------------------------||
||o---------------------------|---------------------------o||
||----------------------------|----------------------------||
||----------------------------|----------------------------||
||o-0-0-0-0-0-3-0-0-----------|-0-0-0-0-0-3-0-0-----------o||
||--0-0-0-0-0-3-0-0-2-(2)b2.5-|-0-0-0-0-0-3-0-0-2-(2)b2.5--||


    PM----------------------------------------------|
||--------------------------|---------------------------||
||o-------------------------|--------------------------o||
||--------------------------|---------------------------||
||--------------------------|---------------------------||
||o-3-0-0-0-0-0-3-0-0-0-0-0-|-3-0-0-0-0-0-3-0-0-0-0-0--o||
||--3-0-0-0-0-0-3-0-0-0-0-0-|-3-0-0-0-0-0-3-0-0-0-0-0---||


   Chorus 4
    PM       PM----|
||---------|--------------|-----------|------------||
||o--------|--------------|-----------|-----------o||
||---------|--------------|-----------|------------||
||--0------|---------0----|-8---8-8-8-|-7---7-7-7--||
||o-0------|-3-2-0-1-0----|-8---8-8-8-|-7---7-7-7-o||
||--0------|-3-2-0-1-0----|-8---8-8-8-|-7---7-7-7--||


  PM----------------------------------------------|
|-------------------------|-------------------------|-----------|-----------|
|-------------------------|-------------------------|-----------|-----------|
|-------------------------|-------------------------|-----------|-----------|
|-------------------------|-------------------------|-8---8-8-8-|-7---7-7-7-|
|-3-2-0-2-0-0-3-2-0-2-0-0-|-3-2-0-2-0-0-3-2-0-2-0-0-|-8---8-8-8-|-7---7-7-7-|
|-3-2-0-2-0-0-3-2-0-2-0-0-|-3-2-0-2-0-0-3-2-0-2-0-0-|-8---8-8-8-|-7---7-7-7-|


           PM----|
|--------|--------------|-----------|-----------||
|--------|--------------|-----------|-----------||
|--------|--------------|-----------|-----------||
|-0------|--------------|-8---8-8-8-|-7---7-7-7-||
|-0------|-3-2-0-1-0----|-8---8-8-8-|-7---7-7-7-||
|-0------|-3-2-0-1-0----|-8---8-8-8-|-7---7-7-7-||


   Outro
    PM----------------------------------------------|
                                                        4x
||--------------------------|---------------------------||
||o-------------------------|--------------------------o||
||--------------------------|---------------------------||
||--------------------------|---------------------------||
||o-3-0-0-0-0-0-3-0-0-0-0-0-|-3-0-0-0-0-0-3-0-0-0-0-0--o||
||--3-0-0-0-0-0-3-0-0-0-0-0-|-3-0-0-0-0-0-3-0-0-0-0-0---||


    PM------------|             PM------------|
||----------------------------|----------------------------||
||o---------------------------|---------------------------o||
||----------------------------|----------------------------||
||----------------------------|----------------------------||
||o-0-0-0-0-0-3-0-0-----------|-0-0-0-0-0-3-0-0-----------o||
||--0-0-0-0-0-3-0-0-2-(2)b2.5-|-0-0-0-0-0-3-0-0-2-(2)b2.5--||


System Of A Down albums
2005 Mezmerize
2002 Steal This Album!
2001 Toxicity
1998 System Of A Down
Toxicity tabs
01Prison Song tabbass tab
02Needles tabbass tab
03Deer Dance tabbass tab
04Jet Pilot tabbass tab
05X tabbass tab
06Chop Suey! tabbass tab
07Bounce tabbass tab
08Forest tabbass tab
09ATWA tabbass tab
10Science tabbass tab
11Shimmy tabbass tab
12Toxicity tabbass tab
13Psycho tabbass tab
14Aerials tabbass tab

 

1