Search tabs:
Browse artists: 0-9 | A | B | C | D | E | F | G | H | I | J | K | L | M | N | O | P | Q | R | S | T | U | V | W | X | Y | Z
/ The Strokes / Is This It (2001) / Hard To Explain guitar tab

Hard to Explain - The Strokes

This is only the bones of it so fiddle around with it as you will to make it sound a little more credible.

All parts tabbed are by Nick, submitted by bigrennie@yahoo.com

Intro

E|-3-3-3-3-3-3-3-3-2-2-2-2-2-2-2-2-3-3-3-3-3-3-3-3-3-3-3-3-3-3-3-3
B|-3-3-3-3-3-3-3-3-3-3-3-3-3-3-3-3-3-3-3-3-3-3-3-3-3-3-3-3-3-3-3-3


Riff 1

E|------0---------0---2-0----------0-2-0--------------------------
B|-1-3-------3-1-1-1-1-3-1-1--------------0-------------0
G|--------2-0----------------0----------------0-0-2-2---2-0-0-2-2---0

Riff 2
E|-3-3-3-3-3-3-3-3-3-3-3-3-7-7-7-7-3-3-3-3-3-3-3-3-3-3-3-3-5-5-5-5
B|-3-3-3-3-3-3-3-3-3-3-3-3-7-7-7-7-3-3-3-3-3-3-3-3-3-3-3-3-5-5-5-5

Repeat intro to "I was an honest mannnnnnn"

Riff 1 "asked me for the phone...."

Repeat Riff 2,

Then Intro, 

Riff 1, and then

Bridge 
E|3/7-7-7-7-7-7-7-7-7-7-7-7-7-7-7-7-7-7-7-7-7-7-7  etc.
B|3/8-8-8-8-8-8-8-8-8-8-8-8-8-8-8-8-8-8-8-8-8-8-8

Chorus
E|
B|-0-3-0-1-0-0-3-0-1-0-0---------0-----        X4
G|-------------------------0-0-2-0-0-2-0

Intro
Riff 1,
Riff 2,
Intro,
Riff 1,
Bridge,
Chorus.



The Strokes albums
2003 Room on Fire
2001 Is This It
Is This It tabs
01Is This It tabbass tab
02Modern Age tabbass tab
03Soma tabbass tab
04Barely Legal tabbass tab
05Someday tabbass tab
06Alone Together tabbass tab
07Last Night tabbass tab
08Hard To Explain tabbass tab
09New York City Cops tabbass tab
10Trying Your Luck tabbass tab
11Take It Or Leave It tabbass tab

 

1