Search tabs:
Browse artists: 0-9 | A | B | C | D | E | F | G | H | I | J | K | L | M | N | O | P | Q | R | S | T | U | V | W | X | Y | Z
/ The Strokes / Is This It (2001) / Last Night guitar tab

Artist: The Strokes
Album: Is This It?
Track: 7
Song: Last Nite
Versions: 5

------------------------------------------------------------------------------------

Last Nite by The Strokes

12/9/01 hankil(at)juno.com (Tucson, Arizona)
12/10/01 hankil(at)juno.com

Intro:
E|------------------------------------------------|
B|------------------------------------------------|
G|------------------------------------------------| repeat
D|---10---10---10---10--10-10-10-10--10-10-10-10--| 2 times
A|-----------------------X--X--X--X---X--X--X--X--|
E|-8----8----8----8------8--8--8--8---8--8--8--8--|
                        
|------------------------------------------------------|
|------------------------------------------------------|
|------------------------------------------------------| repeat
|-10-10-10-10--10-10-10-10---10-10-10-10--10-10-10-10--| 4 times
|--X--X--X--X---X--X--X--X----X--X--X--X---X--X--X--X--|
|--8--8--8--8---8--8--8--8----8--8--8--8---8--8--8--8--|
  \/ /\ \/ /\  \/ /\ \/ /\    \/ \/ \/ \/  \/ \/ \/ \/ strum direction

[0:09s] 2nd guitar enter 2 measures after drums. 1st guitar sounds as if
doubled or gets jacked up a notch.
 	
2nd guitar 
|-------------------------------------|
|-------------------------------------|
|-------------------------------------| repeat
|-5-5-5-5--5-5-5-5--5-5-5-5--5-5-5-5--| 4 times
|-3-3-3-3--3-3-3-3--5-5-5-5--5-5-5-5--|
|-------------------------------------|

Chords (for rhythm guitar 1)
C       X-10-10--9--8--X
Dmin7 (10)-X-10-10-10--X
G       X-10-12-12-12--X
Emin    X----14-12-12--X
F       X--8-10-10-10--X

Chords (for rhythm guitar 2, on upbeats)
C       X--X-(10)--9--8--8
Dmin(7) X--X-(12)-10-10-10
Dmin(9) X--X-(12)-10-10-12 alternate for Dmin(7)
G       X--X--X--7--8--7 or X--X--X--12-12-10
Emin(7) X--X--X--9--8--7 or X--X--X--12-12-12

Other chords
Emin7 (12)-X-12-12-12-X
G/D   (10)-X-12-12-12-X


 time  |C            |    |Dmin7    | G    | Emin7 G/D |
[0:28] |Last Night...|    |feel...  |      |           |
[0:39] |...So...     |    |         |      |           |
[0:51] |...I've      |    |         |      |           |

         back to intro riff
[1:02] | People... |     |     |     |

 time  |C            |    |Dmin7    | G    | Emin7 G/D |
[1:21] |Last Night...|    |feel...  |      |           |
[1:32] |...So...     |    |         |      |           |

[1:44] 
|----      ----
|----    X ----
|----    X \17-
|-10-    X \-X-
|--X- ...X \15- ...
|--8-      ----

rhythm guitar chords behind solo
[1:58]
C F G (2 measures each)

Solo:
[1:58]
                         ~                        ~
|--------------------------------------------------------
|-18b20--18b19r18p16----16-18b20--18b19r18p16----16------
|---------------------17----------------------17-17------
|---------------------------------------------------s/15-
|--------------------------------------------------------
|--------------------------------------------------------

|------------------------------------------
|-16----15----------13-13-------13-13------
|----14----12-15b17-------15b17------------
|-------------------------------------s/15-
|------------------------------------------
|------------------------------------------

|-------------------------------------------
|-16----15----------13-13-------13-13-------
|----14----12-15b17-------15b17-------15----
|-------------------------------------------
|-------------------------------------------
|-------------------------------------------

                                  almost...
|------------------------------(8)-(8)-(8)-(8)-(8)-(8)-(8)-------------------\|
|-------------------------------8---8---8---8---8---8---8---16-----16---16--X\|
|---8----8----8----8-----8----10b12-()--b12-()-b12--()--b12-18b20-(20)-(20)rX\|
|-----10---10---10---10----10-----------------------------------------------X\|
|----------------------------------------------------------------------------\|
|----------------------------------------------------------------------------\|

         back to intro riff
[2:12] | People... |     |     |     |

 time  |C            |    |Dmin7    | G    | Emin7 G/D |
[2:30] |Last Night...|    |feel...  |      |           |
[2:41] |...So...     |    |         |      |           |

Outro:
[2:53] C C(/F) C(/G) C(/F) C(/G) then back to intro riff

------------------------------------------------------------------------------------------

Last Nite - The Strokes
Tabbed by: Kim Dahlberg, kimdahlberg@hotmail.com

INTRO:
Guitar 1:
E|--8-8-8-8-8-8-8-8-8-8-8-8-8-8---| (all the time)

Guitar 2: (after the drums)
A|--8-8-8-8-8-8-8-8-10-10-10-10-10-10-10-10---|
E|--8-8-8-8-8-8-8-8-8--8--8--8--8--8--8--8----|

Bass:
A|--8-8-8-8-8-8-8-8-10-10-10-10-10-10-10-10---| x2

VERSE:
      C
Last night she said
	     Dm
Oh, baby, I feel so down
	 G
Oh, and turned me off
	Em	 D
When I feel left out
   C
So I, I turned around
		   Dm
Oh, baby, I don't care no more
	 G
I know this for sure
	    Em	      D
I'm walking out that door
	    C
Well, I've been in town
For just about fifteen minutes now
	     Dm
Oh, baby, I feel so down
       G
And I don't know why
	Em	    D
I keep walking for miles


CHORUS:
	 F			 G
But the people they don't understand
     F				   G
No, girlfriends, they can't understand
       F			  G
Your grandsons, they won't understand
    F					 G
On top of this I ain't ever gonna understand


VERSE 2:
      C
Last night she said
	     Dm
Oh, baby, I feel so down
	 G
Oh, and turned me off
	Em	 D
When I feel left out
   C
So I, I turned around
	      	    Dm
Oh, baby, I'm gonna be alright
	   G
It was a great big lie
      Em        D
As I left that night, yeah


BREAK:
Guitar:
E|--8-8-8-8-8-8-8-8-8-8-8-8-8-8-8---|

Bass:
A|--8-8-8-8-8-8-8-8-10-10-10-10-10-10-10-10---|


SOLO:
|C   |C   |F   |F   |G   |G   |

e|--13b14---13-11----11-13b14---13-11----11------|
B|----------------13------------------13----13---|

e|--11---10-----------------11---10----------------|
B|----10---10---13-13-13------10---10---13-13-13---|
G|-------------------------------------------------|

e|----------------------------------12b13---|
B|------------------------8-8-8-8-----------|
G|--8-5-8-5-8-5-8-5-8-5---7-7-7-7-----------|
D|------------------------------------------|


CHORUS:
     F			     G
Oh, people they don't understand
     F				   G
No, girlfriends, they can't understand
     F			         G
In spaceships, they won't understand
     F				  G
And me, I ain't ever gonna understand


VERSE 3:
      C
Last night she said
	     Dm
Oh, baby, I feel so down
	 G
She had turned me off
	Em	 D
When I feel left out
   C
So I, I turned around
		          Dm
Oh, little girl, I don't care no more
	 G
I know this for sure
	    Em	      D     C
I'm walking out that door, yeah

OUTRO:
|F   |G   |F   |G   |

E|--8-8-8-8-8-8-8-8-8-8-8-8-8-8---|...


------------------------------------------------------------------------------------------
LAST NITE

the actual chord proggression to last nite goes like this..

       C      C       Dm7     G     Em     Em7      C
e---3----3-----5------7----7-----7------3---
b---5----5-----6------8----8-----8------5---
g---5----5-----5------7----9-----7------5---
d---5----5-----7------9----9-----9------5---
a---3----3-----5------10---7-----7------3---
E---x----x-----x------x----x-----x------x----

the C can also be palyed as a bar chord on the 8th fret.

the chorus is F and G
enjoy

Tabulated by Michael Munerantz

------------------------------------------------------------------------------------------
LAST NITE

Tabbed by Kobbe (kobbe@kent.nu)

Listen to the song for timing

Intro and Outro : C

Vers:

      C       D          G      E     D
e---3---|----5---|-----10------7------5----|-
B---5---|----7---|-----12------9------7----|-
G---5---|----7---|-----12------9------7----|-
D---5---|----7---|-----12------9------7----|-
A---3---|----5---|-----10------7------5----|-
E-------|--------|-------------------------|-

Chorus:

    F5       G5
e-------|---------------|-
B-------|---------------|-
G-------|---------------|-
D---3---|-----5---------|-
A---3---|-----5---------|-
E---1---|-----3---------|-


Intro:

Vers:

Last night, she said:
"Oh, baby, I feel so down.
Oh it turns me off,
When I feel left out"

So I, I turned 'round:
"Oh, baby, don't care no more
I know this for sure,
I'm walkin' out that door"

Well, I've been in town for just now fifteen minutes now
And Baby, I feel so down
And I don't know why
I keep walkin' for miles

Chorus:

See, people they don't understand
No, girlfriends, they can't understand
Your Grandsons, they won't understand
On top of this, I ain't ever gonna understand...

Vers:

Last night, she said:
"Oh, baby, don't feel so down.
Oh, it turns me off,
When I feel left out"

So I, I turn 'round:
"Oh, baby, gonna be alright"
It was a great big lie
'Cause I left that night, yeah

Chorus:

Oh, people they don't understand
No, girlfriends, they won't understand
In spaceships, they won't understand
And me, I ain't ever gonna understand...

Vers:

Last night, she said:
"Oh, baby, I feel so down.
See, it turns me off,
When I feel left out"

So I, I turn 'round:
"Oh, little girl, I don't care no more.
I know this for sure,
I'm walking out that door," yeah

Outro:

This is just a start ,if anyone know the solo or anything else just contact me  :)  (kobbe@kent.nu)

------------------------------------------------------------------------------------

last nite corrections

(WRONG)
Vers:

      C       D          G      E     D
e---3---|----5---|-----10------7------5----|-
B---5---|----7---|-----12------9------7----|-
G---5---|----7---|-----12------9------7----|-
D---5---|----7---|-----12------9------7----|-
A---3---|----5---|-----10------7------5----|-
E-------|--------|-------------------------|-

Chorus:

    F5       G5
e-------|---------------|-
B-------|---------------|-
G-------|---------------|-
D---3---|-----5---------|-
A---3---|-----5---------|-
E---1---|-----3---------|-


(RIGHT)
Vers:

      C       Dm          G      Em     D
e---3---|----5---|-----10------7------5----|-
B---5---|----7---|-----12------9------7----|-
G---5---|----7---|-----12------9------7----|-
D---5---|----7---|-----12------9------7----|-
A---3---|----5---|-----10------7------5----|-
E-------|--------|-------------------------|-

Chorus:

    F5       G5
e-------|---------------|-
B-------|---------------|-
G-------|---------------|-
D---3---|-----5---------|-
A---3---|-----5---------|-
E---1---|-----3---------|-


Tabulated by D Dennis





The Strokes albums
2003 Room on Fire
2001 Is This It
Is This It tabs
01Is This It tabbass tab
02Modern Age tabbass tab
03Soma tabbass tab
04Barely Legal tabbass tab
05Someday tabbass tab
06Alone Together tabbass tab
07Last Night tabbass tab
08Hard To Explain tabbass tab
09New York City Cops tabbass tab
10Trying Your Luck tabbass tab
11Take It Or Leave It tabbass tab

 

1