Search tabs:
Browse artists: 0-9 | A | B | C | D | E | F | G | H | I | J | K | L | M | N | O | P | Q | R | S | T | U | V | W | X | Y | Z
/ The Strokes / Is This It (2001) / Someday guitar tab

SOMEDAY
(The Strokes)

From the album - is this it

tabbed by Rob Cockayne (like the drug but spelled different... feel free to laugh)
aka @z g

The main riff goes sumfing like this, i worked it out alll by myself ;o)
  
                        
e|--5----7----------5----7----------9----7--------7----5--|
B|--5----5----------7----7----------7----7--------7----5--|
G|--6----6----------7----7----------7----7--------7----6--|
D|--------------------------------------------------------|
A|--------------------------------------------------------|
E|--------------------------------------------------------|


Sorry, but thats all I know from that song. it does sound pretty good though.


I've worked out a bit from 'last nite' as well, i sort of know the solo, but tabbing solo's
is very boring... sorry. he uses c minor pentatonics on it if that helps.


e|--------------------------------------------------------------13b14---and the----|
B|------------------------------------------------------------------------rest-----|
G|----5----------------------5------5------5------5--------------------------------|
D|--------goes on for ages---3------5------3------5--------------------------------|
A|----3----------------------3------3------3------3--------------------------------|
E|---------------------------------------------------------------------------------|

I wanna make a shout out to Sam & Dan down in Bristol... BOOOOOoooooOOOOooommm
Biggup to the hereford massive. selecta.


The Strokes albums
2003 Room on Fire
2001 Is This It
Is This It tabs
01Is This It tabbass tab
02Modern Age tabbass tab
03Soma tabbass tab
04Barely Legal tabbass tab
05Someday tabbass tab
06Alone Together tabbass tab
07Last Night tabbass tab
08Hard To Explain tabbass tab
09New York City Cops tabbass tab
10Trying Your Luck tabbass tab
11Take It Or Leave It tabbass tab

 

1