Search tabs:
Browse artists: 0-9 | A | B | C | D | E | F | G | H | I | J | K | L | M | N | O | P | Q | R | S | T | U | V | W | X | Y | Z
/ The Strokes / Room on Fire (2003) / The End Has No End guitar tab

Song: The end has no end
Artist: the strokes
Album: room on fire

= = = = = = = = = = = = = = = = = = = = = = = = = = = = = = = = = = = = = = = = = =
This is yet another fantastic song from the strokes new album room on fire, it didnít take very long to work out and is quite easy to play.

Tabbed by Luigino DíAndrea
= = = = = = = = = = = = = = = = = = = = = = = = = = = = = = = = = = = = = = = = = = the intro is in drop d tuning and goes

D 7  2 6 1
A 7  2 6 1 (listen for strumming pattern)
D 7  2 6 1

E---------------------------------------------------------
B----7-----6-----7-----6-----6-----7-----6------7---6---6-
G-------6-----6-----6-----6-----6-----6------6-----6--6---

Then you have to slightly modify the riff to this

E-----------------------------
B--6----4----6-----4----4-----
G-----5----5----5-----5-------
(Now start the intro again and repeat)

When the second guitarist comes in, a quite different riff joins in over the top

E-----------------9--------------------------9---------------------
B------7--9--6-------7---9-------7--9--6-------7--9----------------
G---6--------------6-----------6---------------6-------------------


Im still working out the rest, so if you know it or have any corrections please send them to
m.dandrea@ntlworld.com


The Strokes albums
2003 Room on Fire
2001 Is This It
Room on Fire tabs
01What Ever Happened? tabbass tab
02Reptilia tabbass tab
03Automatic Stop tabbass tab
0412:51 tabbass tab
05You Talk Way Too Much tabbass tab
06Between Love & Hate tabbass tab
07Meet Me in the Bathroom tabbass tab
08Under Control tabbass tab
09The Way It Is tabbass tab
10The End Has No End tabbass tab
11I Can't Win tabbass tab

 

1