Search tabs:
Browse artists: 0-9 | A | B | C | D | E | F | G | H | I | J | K | L | M | N | O | P | Q | R | S | T | U | V | W | X | Y | Z
/ The Strokes / Room on Fire (2003) / Under Control guitar tab

The Strokes -
title-Under Control
album-room on fire
tabbed by: dylan (cirano)
i dont know if this is correct with guitar 1 and 2. this is the way my band plays it and it sounds good

guitar 1
albert
Verse:
e-4446-6-6-6-6-6-6--6-6-6664-4-4-4-4-8889-9-9-9-9-898-6-6-6-6- X3

guitar 2
nick
Verse/Intro
:These are not correct rhythms, listen to figure out:
e---4---6---4---8---9---8---9---8---6
B---6---7---6---9--11---9--11---9---7
G---6---8---6--10--11--10--11--10---8
D---x---x---x---x---x---x---x---x---x
A---x---x---x---x---x---x---x---x---x
E---x---x---x---x---x---x---x---x---x


Bridge:
e-----------------2-2-2-2-2-2-2-2-
B-4-4-4-4-4-4-4-4-----------------  X4



Solo:
e-9---9-11-9--9--9-11-13-9-
B--11----------11----------   X2


Outro:
e-13-11-14-13-11-9-


The Strokes albums
2003 Room on Fire
2001 Is This It
Room on Fire tabs
01What Ever Happened? tabbass tab
02Reptilia tabbass tab
03Automatic Stop tabbass tab
0412:51 tabbass tab
05You Talk Way Too Much tabbass tab
06Between Love & Hate tabbass tab
07Meet Me in the Bathroom tabbass tab
08Under Control tabbass tab
09The Way It Is tabbass tab
10The End Has No End tabbass tab
11I Can't Win tabbass tab

 

1