Search tabs:
Browse artists: 0-9 | A | B | C | D | E | F | G | H | I | J | K | L | M | N | O | P | Q | R | S | T | U | V | W | X | Y | Z
/ / / guitar tab

Won't Get Fooled Again 
By The Who
>From Who's Next, 1971
Written by Pete Townshend (c)1971 Towser Tunes Inc./Fabulous Music Ltd.

NOTE: Scroll to bottom for old CRD-only transcription
==============
transcribed by
litgo@aol.com
==============

Arranged for three guitars: two electric, one acoustic
A      x022xx and x0222x
A5     x02255
(G)    3xxxxx
(C)    x3xxxx
D      xx0232
C      x32010
G      3x0033 and 3x0003
G/D    xx0433
D/A    x0243x
D7     xx0535
B      x2444x
E      022400 and 022100
E7     020100
E6     042200
E7ii   050400

||A   |  |  |  |  |  |  |  |  |  |  |  |  |  |  |  |

(G)|A   |    (G)|A    |     (G)|A   A   A |     |     |     D    |
                                                             (We'll be)
---|----|-------|-----|--------|----------|-----|-----|----------|
---|----|-------|-----|--------|----------|-----|-----|----------|
---|2---|-------|2----|--------|2---2-----|-----|-----|--4^\-2-2-|
---|2---|-------|2----|------2-|2---2---2-|-----|-----|----------|
---|0---|-------|0----|--------|0---0---0-|-----|-----|----------|
-3^|----|------3|-----|------3^|----------|-----|-----|----------|

[acoustic]
        |A      / /      /|/ G D       / |
We'll be fighting in the streets      (with our)
[electric 1]
        |-----------------|--------------|
        |-----------------|--------------|
        |2~--------------2|2-------------|
        |-----------------|-------------2|
        |-----------------|0----0-------0|
        |-----------------|--------------|

        |A               |  G  D        |
With our children at our feet     (and the) 
        |----------------|--------------|
        |----------------|--------------|
        |---------2~-----|--------------|
        |----------------|-----------0--|
        |----------------|-------0------|
        |----------------|--------------|

       |A                   | G  D      |E        |C  G G      |
And the morals that they worship will be gone            (And the)
       |---5----------------|-----------|---0-----|-----3------|
       |---5----------------|-----------|---0-----|1----0------|
       |---2----------------|-----------|---4-----|0----0------|
       |2-------------------|-----------|---2-----|2----0------|
       |0-------------------|---0-------|---2-----|3-----------|
       |--------------------|-----3^----|0--------|---3--------|

       |A                 |   G D        |
And the men who spurred us on     (sit in)
       |----5-------------|--------------|
       |----5-------------|--------------|
       |------------------|--------------|
       |2-----------------|---------0--0-|
       |0-----------------|-----0--------|
       |------------------|--------------|

      |A                | G D        |
Sit in judgement of all wrong (They de-)
      |-----5~----------|------------|
      |-----5~----------|5-----------|
      |-----------------|2-----------|
      |-----------------|------------|
      |0----------------|---0----5-0-|
      |-----------------|------------|

      |A              |  G D     (G^) E           |C G G       |
They decide and the shotgun sings the song                  (I'll)
      |-----5---------|--------------|-----0------|----3-------|
      |-----5---------|--------------|-----0------|1---0-------|
      |-----2---------|-----2--------|-----1------|0---0-------|
      |2--------------|--------------|------------|2---0-------|
      |0--------------|------0-------|------------|------------|
      |---------------|----------3^--|0-----------|--3-3-------|

[chorus]
    |D      A         |D         A      |
I'll tip my hat to the new constitution  
    |----2--0---------|--2--------------|
    |3---3--2---------|3-3-------2------|
    |-------2---------|-------------2---|
    |-------2---------|-----------------|
    |-------0---------|-----------------|
    |-----------------|-----------------|

|D      A          |D        A      |
 Take a bow for the new revolution   
|-----2------------|----2-----------|
|--3--3------------|--3-3-----------|
|-------2----------|---------2------|
|-------2----------|---------2------|
|------------------|----------------|
|------------------|----------------|

|D         A          |D        A       |
 Smile and grin at the change all around 
|------2--------------|----2------------|
|---3--3--------------|--3-3------------|
|----------2----------|---------2-------|
|----------2----------|---------2-------|
|---------------------|-----------------|
|---------------------|-----------------|

|G                    |E7   E6  E7   |
 Pick up my guitar and play           
|-----3---------------|4----2--------|
|---------------------|--------/5----|
|------------------2/4|--------------|
|---------------------|---0---0------|
|---------------------|--------------|
|3--------------------|--------------|

|G              |E7   E6  E7      |
 Just like yesterday,     (then I'll)
|-----7~--------|4----2-------4---|
|---------------|-----------------|
|5/7---------2/4|---------2/4----/|
|---------------|--0----0---------|
|---------------|-----------------|
|---------------|-----------------|

         |G                  |D        G     |D  G    |D    |      |
Then I'll get on my knees and pray                      (We don't get)
         |----7~-------------|2--------3-----|2-------|2----|------
         |-------------------|3--------3-----|3-------|3----|------
         |7------------7\----|2--------2-----|2-------|2----|------
         |-------------------|0--------0----0|0-------|0----|------
         |-------------------|---------------|----3^--|-----|------
         |-------------------|---------------|--------|-----|------

                    |A     | G   D   |A     | G  D   |
We don't get fooled again                             
                ----|------|-3-3-2---|------|-3--2---|
                ----|------|-3-3-3---|------|-3--3---|
                ----|2-----|-0-0-2---|------|-0--2---|
                2/2/|2-----|-0-0-0--2|2-----|-0--0--2|
                0/0/|0-----|--------0|0-----|-------0|
                ----|------|-3-3-----|------|-3------|

|A A5 G A A5 G | A5 G  D   |A A5 G A A5 G   | A5 G  D    |
|---------5----|-5---------|---5------5-----|------------|
|---------5-0--|-5-0---3---|---5-0----5---3-|------------|
|2--------2-0--|-2-0---2---|---2-0--------2-|------------|
|2------------2|-----2-4---|-----0--------4-|------------|
|0-------------|-----------|-0------0---0---|------------|
|--------------|-----------|----------------|------------|

   |A                |     G D     |A            |  G D         |
The change, it had to come       We knew it all along     (We were)
   |-----------------|-------------|-------------|--------------|
   |5----------------|-------------|-------------|--------------|
   |2----------------|-------------|-----2--2~---|--------------|
   |2----------------|-------------|-------------|--------------|
   |0----------------|-------0-----|0------------|---0----------|
   |-----------------|-------------|-------------|--------------|

       |A         |   G D               |E          |C   G       |
We were liberated from the fold, that's all                (And the)
       |----------|---------------------|--0--------|----3-------|
       |----------|---------------------|--0--------|1---0-------|
       |---2--2~--|---------------------|--4--------|0---0-------|
       |----------|---------------------|--2--------|2---0-------|
       |0---------|---------------0-----|-----------|3---------0-|
       |----------|------------------3^-|0----------|--3---------|

       |A                   |   G D           |
And the world looks just the same          (And)
       |--------------------|--9-\--9-\-----5-|
       |--------------------|--10\--10\-----5-|
       |2-------------------|--9-\--9-\-----2-|
       |2-------------------|---------------2-|
       |0-------------------|------------0--0-|
       |--------------------|-----------------|

   |A             |     G D         |
And history ain't changed   ('cause the)
   |--------------|--9-\--9-\-----5-|
   |--------------|--10\--10\-----5-|
   |--------------|--9-\--9-\-----2-|
   |--------------|-----------------|
   |--------------|------------0----|
   |--------------|-----------------|

       |A         |   G  D              |E          |C   G       |
'Cause the banners, they all flown in the last war          (I'll)
       |5---------|---------------------|--0--------|----3-------|
       |5---------|---------------------|--0--------|1---0-------|
       |2---------|---------------------|--4--------|0---0-------|
       |----------|---------------------|-----------|2---0-------|
       |----------|---------------------|-----------|3-----------|
       |----------|---------------------|0----------|--3-3-------|

[repeat chorus]
    |D      A         |D         A      |
I'll tip my hat to the new constitution
D      A          |D       A      |
Take a bow for the new revolution
D         A          |D          A      |
Smile and grin at the change all around

|G                    |E7   E6  E7          |
 Pick up my guitar and play
|-----3---------------|---------------------|
|-----3---------------|---------------------|
|---------------------|14^\---12-12^--------|
|---------------------|----14--------14~----|
|---------------------|---------------------|
|3--------------------|---------------------|

|G               |E7   E6  E7           |
 Just like yesterday              (Then I'll)
|-----7--------12|----12-----12---------|
|----------------|15^---15^----15^~-----|
|5/7-------------|----------------------|
|----------------|----------------------|
|----------------|----------------------|
|----------------|----------------------|

         [acoustic]
         |G                  |D    G/D|D  G/D |D7    |                 |
Then I'll get on my knees and pray                We don't get fooled a-
         [electric 1]                                                   
         |----7--------------|2----3--|2---3--|5-----|-----------------|
         |-------------------|3----3--|3---3--|3-----|-----------------|
         |----7--------------|2----4--|2---4--|5-----|<7>--------------|
         |-------------------|--------|-------|------|<7>-------------2|
         |-------------------|--------|-------|------|----------------0|
         |-------------------|--------|-------|------|-----------------|
         |[electric 2]                                                 |
         |-------------------|--------|-------|------|-----------------|
         |-------------------|--------|-------|------|-----------------|
         |-------------------|--------|-------|<7>---|-----------------|
         |-------------------|--------|-------|------|----------------2|
         |-------------------|--------|-------|------|----------------0|
         |-------------------|--------|-------|------|-----------------|

[acoustic]                                                      4
|A     |   G D     | A    | G      ||:A  A  (G) A | A (G) G D :||
-gain  no,no                        
[electric 1]                        
|------|-----------|------|-3------||-------------|-------3-2--||
|------|-----------|------|-3------||-------------|-------3-3--||
|2-----|-----4^\2--|------|-0------||.2--2-2----2-|-2-----0-2-.||
|2-----|----------2|2-----|-0------||.2--2-2----2-|-2-----0-0-.||
|0-----|----------0|0-----|--------||-0--0-0----0-|-0----------||
|------|-----------|------|-3------||--------3----|---3-0------||
|[electric 2]                                                  ||
|------|---3---2---|------|-3------||-------------|-------3-2--||
|------|---3---3---|------|-3------||-------------|-------3-3--||
|2-----|---0---2---|------|-0------||.2--2-2----2-|-2-----0-2-.||
|2-----|---0---0--2|2-----|-0------||.2--2-2----2-|-2-----0-0-.||
|0-----|----------0|0-----|--------||-0--0-0----0-|-0----------||
|------|---3-------|------|-3------||--------3----|---3-0------||

|A A5 G A5 G A|    D....         |A A5 G A5 G A|    D....         :|
|--5----5-----|------------------|--5----5-----|-------------------|
|--5-0--5-0---|----3-3-3-3-3-3-3-|--5-0--5-0---|----3-3-3-3-3-3-3--|
|--2-0--2-0---|-2--2-2-2-2-2-2-2-|--2-0--2-0---|-2--2-2-2-2-2-2-2-.|
|------2---2--|-2--4-4-4-4-4-4-4-|------2---2--|-2--4-4-4-4-4-4-4-.|
|0----------0-|------------------|0----------0-|-------------------|
|-------------|------------------|-------------|-------------------|
|                                                                  |
|--5----5-----|------------------|--5----5-----|-------------------|
|--5-0--5-0---|----3-3-3-3-3-3-3-|--5-0--5-0---|----3-3-3-3-3-3-3--|
|--2-0--2-0---|-2--2-2-2-2-2-2-2-|--2-0--2-0---|-2--2-2-2-2-2-2-2-.|
|------2---2--|-2--4-4-4-4-4-4-4-|------2---2--|-2--4-4-4-4-4-4-4-.|
|0----------0-|------------------|0----------0-|-------------------|
|-------------|------------------|-------------|-------------------|

|A  A5 G A5 G A  |  D                |A A5 G A5  G   A     |  D   |
                                                               (I'll)
|----------------|-------------------|---------------------|------|
|----------------|-------------------|----------5-------3--|------|
|4^\2 2~--2------|-2----2-4^-4--2----|2-2-4--2----4^-4--2--|------|
|----------------|----------------4--|------------------4--|------|
|-----------3^---|---3^--------------|---------------------|------|
|----------------|-------------------|---------------------|------|
|                                                                 |
|--5-----5-------|-------------------|--5------5-----------|------|
|--5-0---5-0-----|----3-3-3-3-3-3-3--|--5--0---5-0------3--|------|
|--2-0---2-0-----|-2--2-2-2-2-2-2-2--|--2--0---2-0------2--|------|
|-------2----2---|-2--4-4-4-4-4-4-4--|-------2------2---4--|------|
|0-------------0-|-------------------|0--------------------|------|
|----------------|-------------------|---------------------|------|

    |B      Bsus4      |B       Bsus4        |
I'll move myself and my family aside          
    |------------------|---------------------|
    |------------------|---------------------|
    |-----4------------|------2--------------|
    |------------------|---/4---4p2------2---|
    |2-----------------|------------2/4------|
    |------------------|---------------------|

|E     E6             |E7ii      E6         |
    If we happen to be left half alive    (I'll)
|------0--------------|---------------------|
|------0--------------|---------------------|
|---------------------|---------------------|
|---------------------|------2----2---------|
|---------------------|--------------0------|
|0--------------------|----3^---3^----------|

    |A                    |                           |
I'll get all my papers and smile at the sky, though I
    |----5----------------|---5-----------------------|
    |----5----------------|---5-----------------------|
    |----2--------------4^|-----4^\---2---------------|
    |2--------------------|---------4-----------------|
    |0--------------------|--------------0------------|
    |---------------------|---------------------------|

|B                       |B7        B          |
 Know that the hypnotized never lie             
|------------------------|---------------------|
|------------------------|----------4----------|
|-----4---4-------4------|2---------4----------|
|------------------------|4---------------4----|
|2-------------2---------|2-----------2-2---2--|
|------------------------|---------------------|

|B B      |   A  E   |B B      |  A  E   |B B     | A  E   |B B   | A E|
                                            Do ya? 
|---------|----------|---------|---------|--------|--------|------|----|
|--4--x-x-|4---------|-----x-x-|---------|--------|--------|------|----|
|4-4--x-x-|4--2------|4-4--x-x-|--2------|--------%--------|------%----|
|4-4--x-x-|4--2--2-2-|4-4--x-x-|--2--2-2-|--------|--------|------|----|
|2-2--x-x-|2--0--2-2-|2-2--x-x-|--0--2-2-|--------|--------|------|----|
|---------|------0-0-|---------|-----0-0-|--------|--------|------|----|

|B       |    E           |B                   |   E                   |
|--------|----------------|--------------------|-----------------------|
|--7-----|-----------10^--|10~--10/10/10--10/10|10~--10--10-9-9--9-9--9|
|--7^----|--9^\7^--7------|--------------------|-----------------------|
|------9-|-------9--------|--------------------|-----------------------|
|--------|----------------|--------------------|-----------------------|
|--------|----------------|--------------------|-----------------------|
|                                                                      |
|--------|----------------|--------------------|-----------------------|
|--7-----|----------------|---10^--------------|-----------------------|
|--7^----|----------------|--------------------|9^-9--7-----7-7^-------|
|------9-|-----9-9-9---9-9|9-------------------|--------9----------9---|
|--------|----------------|--------------------|-----------------------|
|--------|----------------|--------------------|-----------------------|

|B         |      E                |B                  |      E        |
|----------|---7--7---7---7----7--7|7------------------|---------------|
|7---------|--10^10/-10/-10^\-10-10|10----4-----7---7--|--7--7---------|
|---7^-----|-----------------------|------4-----6^--6^-|--6^-6--6---4--|
|------9~--|-----------------------|-------------------|----------6----|
|----------|-----------------------|-------------------|---------------|
|----------|-----------------------|-------------------|---------------|
|                                                                      |
|----------|-----------------------|-------------------|---------------|
|----------|5--5-------------------|--------2/4-3/4--2-|0--------------|
|----------|7^-7^------------------|-------------------|1--------------|
|----9-9~--|-----------------------|----4---2/4-3/4--2-|---------------|
|----------|-----------------------|--2---2------------|-------------2-|
|----------|-----------------------|-------------------|---------------|

|B            |    E           |B            |     E        |
|-------------|----------------|-------------|--------------|
|-------------|----------------|-------------|--------------|
|---2---2-4~--|--2-2---2-------|------4------|-----2--------|
|2h4--4-------|------4---0-----|--2h4-4--2h4-|-----2--------|
|-------------|0-----------0-0-|2------------|-----0--------|
|-------------|----------------|-------------|--------------|
|                                                           |
|-------------|----------------|-------------|--------------|
|-------------|----------------|-------------|--------------|
|4------------|----------------|4------------|--------------|
|4------------|----2-----------|4------------|--------------|
|2------------|----2-----------|2------------|--------------|
|-------------|----0-----------|-------------|--------------|

|B                  |    E             |B               |  E     |
|-------------------|--0-0--------0----|----------------|--0-----|
|2/4-3/4-3/4-3-2-0--|----------5-------|----4\3-4\3\2--0|--0-----|
|----------------1--|------------------|---------------1|--1-----|
|2/4-3/4-3/4-3-2----|----------------2-|2/4-4\3-4\3\2---|--------|
|-------------------|------------------|----------------|--------|
|-------------------|------------------|----------------|--------|
|                                                                |
|-------------------|------------------|----------------|--------|
|-------------------|------------------|----------------|--------|
|4------------------|------------------|4---------------|--------|
|4------------------|----2-------------|4---------------|--------|
|2------------------|----2-------------|2---------------|--------|
|-------------------|----0-------------|----------------|--------|

|A   | G D    |A   | G D    |A   | G D    |A   | G D D         |
                             Yeah!                    (There's)
|----|-3-2----|----|-3-2----|----|-3-2----|----|-3-2-2---------|
|----|-3-3----|----|-3-3----|----|-3-3----|----|-3-3-3---------|
|2---|-0-2----|2---|-0-2----|2---|-0-2----|2---|-0-2-2---------|
|2---|-0-0----|2---|-0-0----|2---|-0-0----|2---|-0-0-0---------|
|0---|--------|0---|--------|0---|--------|0---|---------------|
|----|-3------|----|-3------|----|-3------|----|-3-------------|

       |A              |   G D           |A              |   G D      |
There's nothing in the street   looks any different to me    (and the) 
       |---------------|-----------------|---5-----------|--------2---|
       |---------------|-----------------|---5-----------|--------3---|
       |---------------|-4^\p2-----------|---------------|---0----2---|
       |2--------------|-------4---------|---------------|---0----0---|
       |0--------------|---------0-3^----|0-------------0|------------|
       |---------------|-----------------|---------------|------------|

       |A             |   G  D       |E       |C      G     |
And the slogans are replaced by-the-by                 (and the)
       |------5-------|---------2----|--0-----|-------3-----|
       |------5-------|---------3----|--0-----|-1-1---0-----|
       |------2-------|2------0-2----|--1-----|-0-0---0-----|
       |2-------------|2------0-0----|--------|-2-2---0-----|
       |0-------------|--------------|--------|-3-3-------0-|
       |--------------|--------------|0-------|-----3-3-----|

       |A             |   G  D       |A             |      G  D       |
And the parting on the left    is now parting on the right     (and the)
       |--------------|--------------|--------------|-----------------|
       |--------------|--------------|--------------|-----------------|
       |2---4^\2-2-2--|2-------2--2--|--------------|-----------2-----|
       |2-------------|--------------|--------------|-----------------|
       |0-------------|---0----------|--------------|------0--0-------|
       |--------------|--------------|--------------|-----------------|

       |A                    |      G  D        |E        |C    G     |
And the beards have all grown longer overnight                   (I'll)
       |---------------------|-------5-5------0-|0-0------|0-0--3-----|
       |---------------------|-------5-5------0-|0-0------|1-1--3-----|
       |------------2---2----|2--------2--------|--1------|0-0--0-----|
       |---------------2----2|------------------|---------|2-2--0-----|
       |---------------------|------------------|---------|-----------|
       |---------------------|------------------|---------|----3------|

[repeat chorus]
    |D      A         |D         A      |
I'll tip my hat to the new constitution
D      A          |D       A       |
Take a bow for the new revolution
D         A          |D          A      |
Smile and grin at the change all around

|G                   |E7   E6  E7              |
 Get up my guitar and play
|3-------------------|---12--------------------|
|3-------------------|-----15-12-12------------|
|0-------------------|13---------14^-14-12^----|
|0-------------------|----------------------14-|
|--------------------|-------------------------|
|--------------------|-------------------------|
|                                              |
|3-------------------|---12--------------------|
|3-------------------|-----15-12-12------------|
|0-------------------|13---------14^-14-12^----|
|0-------------------|----------------------14-|
|--------------------|-------------------------|
|--------------------|-------------------------|

|G                 |E7   E6  E7         |
 Just like yesterday           Then I'll 
|------------------|4----2--------------|
|------------------|---------5-7----5---|
|---------------2/4|--2-----------------|
|12~---------------|--------------------|
|------------------|--------------------|
|------------------|--------------------|
|                                       |

|------------------|4----2---0----------|
|------------------|--------------------|
|---------------2/4|--2----1------------|
|12~---------------|--------------------|
|------------------|--------------------|
|------------------|--------------------|

|G                   D     G/D|D  Dsus4|D     |                |
 get on my knees and pray                 We don't get fooled a-
|-------------------|5--------|--10----|2-----|----------------|
|7^~----7^\---5--7--|7-7--8---|10------|3-----|----------------|
|-------------------|-------7-|--------|2-----|----------------|
|-------------------|---------|--------|0-----|-------------2-2|
|-------------------|---------|--------|------|-------------0-0|
|-------------------|---------|--------|------|----------------|
|                                                              |
|-------------------|2--------|--------|2-----|----------------|
|7^~----7^\---5--7--|3--------|--------|3-----|----------------|
|-------------------|2--------|--------|2-----|----------------|
|-------------------|0--------|--------|0-----|-------------2-2|
|-------------------|---------|--------|------|-------------0-0|
|-------------------|---------|--------|------|----------------|

|A      |  G D/A|A     | G D/A       |A      |  G  D/A  |A      | G D |
-gain                          no, no
|-------|-------|------|-------------|-------|----------|-------|-----|
|-------|-----3-|2-----|------3-3-2/2|-------|---3------|------0|-----|
|2------|-----2-|2-----|------2-2-2/2|2------|---2------|2-----0|-----|
|2------|-----4-|2-----|------4-4-2/2|2------|---4-----2|2-----0|-----|
|0------|-----0-|0-----|-------------|0------|---------0|0------|-----|
|-------|-------|------|-------------|-------|----------|-------|-----|

                [palm mute]
||:A A5 G A5 G A|    D....         :||:A....                       :||
||---5----5-----|-------------------||--------------|---------------||
||---5-0--5-0---|----3-3-3-3-3-3-3--||--------------|---------------||
||.--2-0--2-0---|-2--2-2-2-2-2-2-2-.||.-------------%--------------.||
||.------2---2--|-2--4-4-4-4-4-4-4-.||.-------------|--------------.||
||-0----------0-|-------------------||--------------|---------------||
||--------------|-------------------||--------------|---------------||
||                                                                  ||
||--------------|-------------------||--------------|---------------||
||--------------|--5--5-5-----------||--------------|-3-3-3-3-3-3-3-||
||--4^-4p2--2~--|--4^-4-2-4-4^--4-2-||-----2--2---2-|-2-2-2-2-2-2-2-||
||---------4---2|-------------------||----------4---|-4-4-4-4-4-4-4-||
||--------------|-------------------||---3^---------|---------------||
||--------------|-------------------||--------------|---------------||

|--5-----5---5-|---------------|--5--------------|----------------|
|--5-0---5---5-|-3-3-3-3-3-3-3-|--5-0---5--------|----------------|
|----0---------|-2-2-2-2-2-2-2-|------2-2-2-2----|----------------|
|------2-------|-4-4-4-4-4-4-4-|--------2-2-2----|--2-2-----2-----|
|--------------|---------------|0-------------3^-|--0---3-0-0-3^-0|
|--------------|---------------|-----------------|----------------|

|--5-----5-------|--2---2-2--|---------------------|-------------------|
|--5-0---5-------|--3---3-3--|---------------------|-------------------|
|----0-2---0-2-0-|--2---2-2--|--2p0-2p0-2p0-2p0-2p0|-2p0-2p0-2p0-2p0--2|
|2---------0-2-0-|--0---0-0--|---------------------|------------------2|
|0---------------|----------0|0----3---3---3---3---|3---3---3---3---0--|
|----------------|-----------|---------------------|-------------------|

|---------|--3-2-3-2-2-0-|--------------------|-----------------------|
|---------|--3-3-3-3-3---|--17---17^--17--17^-|--17^------------14-12-|
|---------|--2-2-2-2-----|--16^\-16^--16--16^-|------16-16^\-14-14-12-|
|--2---2/2|2-0-0-0-0-----|--------------------|--------------14-------|
|--0---0/0|0-------------|--------------------|-----------------------|
|---------|--------------|--------------------|-----------------------|

|----------------|--------0-------|------------------|------3--2-----|
|--7-5---------7-|5-------0-----0-|----------5---2---|------3--3-----|
|--7-5---7-5---7-|5-0-7-5-------0-|--7-5-0-7-5-0-2-2-|--0---2--2-----|
|--7-5-7-7-5-7-7-|5-0-7-5-------0-|7-7-5-0-7-5-0-2-2-|--0---0--0-----|
|----------------|----------------|7---------------0-|----0-------0--|
|----------------|----------------|------------------|---------------|

|-----------|--3--2--2----|12---12--12--12--12--12--12--12--12--12--12|
|-----------|--3--3--3--0-|13---13--13--13--13--13--13--13--13--13--13|
|2------2---|--2--2--2--0-|12^-^12-^12-^12-^12-^12-^12-^12-^12-^12-^12|
|2------2--2|--0-----0--0-|-------------------------------------------|
|0------0--0|-------------|-------------------------------------------|
|-----------|-------------|-------------------------------------------|

|12------------12--|-----12--------|--------------|-----|----|----
|13------------13--|-------13------|--------------|-----|----|----
|12^\----------12^-|--12^----12^---|5^------------|2----|----|2---
|------------------|-------------0-|---7-5\-------|2----|----|2---
|------------------|---------------|--------3^p0--|0----|----|0---
|------------------|---------------|--------------|-----|----|----

[synth interlude]
|A / / / / / |A / / / / / |      |    |    %    |

[drum interlude]

|A       | G   D      | A      | G     D     |
 Yeah!
|--------|-----2------|--------|-------2-----|
|--------|-----3------|2-------|--3----3-----|
|2-------|-0---2---2-2|2-------|2-0----2-----|
|2-------|-0---0---2-2|2-------|--0--0-0-----|
|0-------|------------|0-------|-----0-0---0-|
|--------|-3----------|--------|-------------|

|A               | G   D  |A                  | G   D    |
 Meet the new boss         Same as the old boss
|----------------|-3---2--|-------------------|-3---2----|
|----------------|-3-x-3--|-------------------|-3-x-3----|
|2---------------|-0-x-2--|2------------------|-0-x-2----|
|2---------------|-0-x-0--|2------------------|-0-x-0-2/2|
|0---------------|--------|0------------------|-------0/0|
|----------------|3-------|-------------------|3---------|

|A A5   |A5    G D    |A      A5  |A5    G D    |
|-------|--------2----|-----------|--------2----|
|--2---2|2-------3----|----2-2---2|2---x-0-3----|
|--2---2|2-----0-2----|2---2-2---2|2---x-0-2----|
|2-2---2|2-----0-0----|2---2-2---2|2---x-0-0---2|
|0-0---0|0------------|0---0-0---0|0-----------0|
|-------|-------------|-----------|--3----------|

|A      A5   |A5    G D    |A      A5  |A5    G D     |
|------------|--------2----|-----------|--------2-----|
|2-----------|--------3----|-----------|--------3--3--|
|2----2-2---2|2-----0-2----|2---2-2---2|2-------2--2--|
|2----2-2---2|2-----0-0---2|2---2-2---2|2-----0-0--0-0|
|0----0-0---0|0-----------0|0---0-0---0|0-----0------0|
|------------|---3---------|--------3--|--------------|

|A A5 G        |      D/A |A A5 G        |      D/A |
|--------5-----|5---------|--5-----5-----|5---------|
|--2-0---5-0---|5-0-2-3---|--5-0---5-0---|5-0-2-3---|
|--2-0---2-0---|2-0-2-2---|--2-0-2-2-0-2-|2-0-2-2---|
|2-----2-----2-|------4---|2-----2-----2-|----2-4---|
|0-----0-------|----------|0-----0-------|----------|
|--------------|----------|--------------|----------|

| A5    A5  | A5   A5      | A      |A5  
                                     Hey!
|-5---------|-5------------|--------|----
|-5---------|-5----2-------|--------|----
|-2-----2---|-2----2---2/2/|-2------|----
|-2-----2---|-2----2---2/2/|-2------|2---
|-0-----0---|-0----0---0/0/|-0------|0---
|-----------|--------------|--------|----

=============
litgo@aol.com

================================================================================
CRD TRANSCRIPTION
Won't Get Fooled Again 
By The Who
>From Who's Next, 1971
Written by Pete Townshend (c)1971 Towser Tunes Inc./Fabulous Music Ltd.

Original crd transcription by: pjoe@charon.muc.de (Peter Eybert)
==============
transcribed by
litgo@aol.com
==============


A      x022xx
A5     x02255
(G)    3xxxxx
(C)    x3xxxx
G     (3)x0033
G/D    xx0433
D7     xx0535
E      022400
E7     020100
E6     042200
E7ii   050400
D*     acoustic only

|| A     |     |...

(G)| A   |    (G)|A    |     (G)|A   A   A |       |     |     D*

         A                     G* D* 
We'll be fighting in the streets
         A                     G* D*
With our children at our feet
        A                       D*   (G^)E         C  G G
And the morals that they worship will be gone
        A                    G* D* 
And the men who spurred us on 
       A                     G* D*
Sit in judgement of all wrong
       A                   D*    (G^) E      C G G
They decide and the shotgun sings the song

[chorus]
     D      A          D         A
I'll tip my hat to the new constitution
D      A           D       A
Take a bow for the new revolution
D         A           D          A
Smile and grin at the change all around
G                     E7   E6  E7
Pick up my guitar and play
G               E7   E6  E7
Just like yesterday
          G                   D     Dsus4 | D  (C^)| D 
Then I'll get on my knees and pray
                     A     | G D | A    | G  D |
We don't get fooled again

                               2
||: A A5 G A A5 G  | A5 G  D :||
||----5------5-----|-5--------||
||----5-0----5-0---|-5-0-2-3--||
||----2-0----2-0---|-2-0-2-2--||
||--2------2-----2-|-------4--||
||--0------0-------|----------||
||-----------------|----------||

The change, it had to come
We knew it all along
We were liberated from the fold, that's all
And the world looks just the same
And history ain't changed
'Cause the banners, they all flown in the last war

[repeat chorus]
     D      A          D         A
I'll tip my hat to the new constitution
D      A           D       A
Take a bow for the new revolution
D         A           D          A
Smile and grin at the change all around
G                     E7   E6  E7
Pick up my guitar and play
G               E7   E6  E7
Just like yesterday
          G                   D     G/D | D  G/D | D7 
Then I'll get on my knees and pray
                     A     |   G D | A    | G  D |
We don't get fooled again  no,no

                             4
||: A A (G) A | A (G)  G D :||
||------------|--------3-2--||
||------------|--------3-3--||
||--2-2-----2-|-2------0-2--||
||--2-2-----2-|-2------0-0--||
||--0-0-----0-|-0-----------||
||-------3----|----3-0------||

                                     3
||: A A5 G A5 G A|    D....         :||
||----5----5-----|-------------------||
||----5-0--5-0---|----3-3-3-3-3-3-3--||
||----2-0--2-0---|-2--2-2-2-2-2-2-2--||
||--------2---2--|-2--4-4-4-4-4-4-4--||
||--0----------0-|-------------------||
||---------------|-------------------||


| A  A5 G A5 G A |  D     |

     B     (Bsus4*)     B      (Bsus4*)
I'll move myself and my family aside
E     E6           E7ii      E6
If we happen to be left half alive
     A
I'll get all my papers and smile at the sky
         B                        B7        B     
Though I know that the hypnotized never lie

      Do ya? (third time)
||: B B | A  E   :||

    Yeah! (third time)
||: A   | G D    :||

There's nothing in the street looks any different to me
And the slogans are replaced by-the-by
And the parting on the left is now parting on the right
And the beards have all grown longer overnight

[repeat chorus]
                  4
||: A     | D    :||

||: A A5 G A5 G A|    D....         :|| A....
||----5----5-----|-------------------||
||----5-0--5-0---|----3-3-3-3-3-3-3--||
||----2-0--2-0---|-2--2-2-2-2-2-2-2--||
||--------2---2--|-2--4-4-4-4-4-4-4--||
||--0----------0-|-------------------||
||---------------|-------------------||

[synth break]

A       | G   D   | A      | G   D |
Yeah!

A               | G   D  |
Meet the new boss
A                  | G   D  |
Same as the old boss

                         4
||: A   A5  | A5   G D  :||

                               2
||: A A5 G        |       D/A :||
||----5-----5-----|-5----------||
||----5-0---5-0---|-5-0-2-3----||
||----2-0---2-0---|-2-0-2-2----||
||--2-----2-----2-|-------4----||
||--0-----0-------|------------||
||----------------|------------||


| A5    A5  | A5   A5      | A      | A5
|-5---------|-5------------|--------|-5-
|-5---------|-5----2-------|--------|-5-
|-2-----2---|-2----2-------|-2------|-2-
|-2-----2---|-2----2---2/2/|-2------|-2-
|-0-----0---|-0----0---0/0/|-0------|-0-
|-----------|--------------|--------|---

=============
litgo@aol.com


albums
tabs

 

1