Search tabs:
Browse artists: 0-9 | A | B | C | D | E | F | G | H | I | J | K | L | M | N | O | P | Q | R | S | T | U | V | W | X | Y | Z
/ Venom / Cast In Stone (1997) / All Devils Eve guitar tab

VENOM - ALL DEVILS EVE
                     From the Album CAST IN STONE
                     Copyright 1997 - SPV RECORDS
                     Version 1.0 - (APR. - 2001)

Transcribed by: BJØRN

For Questions, Comments, Newest Version, or Corrections contact
PANZERKILL@YAHOO.DK

Check Out Death Warp, With More Transcriptions On It:
 http://www.wam.umd.edu/~ekubica

..  - palm mute          /  - slide up to
 \  - slide down to      ~  - vibrato
 h  - hammer on          b  - bend
 p  - pull off            Suffixes for bend
                          ph - pinch harmonic
                           f - full bend    h - half bend
*  - see comment           r - release      t - tap bend
X  - percussion mute       ~ - vibrato bend
@  - slight palm mute     () - ghost note, sustained note

Tune Gtr to C#


Riff A
|--------------------------------------------------------------------|
|--------------------------------------------------------------------|
|--------------------------------------------------------------------|
|-------------------------------------------------------5-7----------|
|--5/7-7--5/7-7--5/7-7--7-2-4-5--5/7-7--5/7-7--5/7-7--7-3-5----------|
|--3/5-5--3/5-5--3/5-5--5-0-2-3--3/5-5--3/5-5--3/5-5--5--------------|

Riff B
|--------------------------------------------|
|--------------------------------------------|
|--------------------------------------------|
|--------------------------------------------|
|-------8ph------7ph------5ph------3ph-------|
|--0000-----0000-----0000-----0000-----------|

Riff C
|-------------------------------------------|
|-------------------------------------------|
|-------------------------------------------|
|--7----9----7------------------------------|
|--5-7--7-9--5-7----------------------------|
|----5----7----5--0000-0000-0000-0000-------|

Riff D
|--------------------------------------------------------------------|
|--------------------------------------------------------------------|
|----------------------------------------------5---5---5---5---5---5-|
|--7---7---7---7---7--7-6---6---6---6---6---6---666-666-666-666-666--|
|---888-888-888-888-88-8-777-777-777-777-777-77----------------------|
|--------------------------------------------------------------------|
|                                                                    |
|--------------------------------------------------------------------|
|--------------------------------------------------------------------|
|--------------------------------------------------------------------|
|--6---6---6---6---6---6---------------------------------------------|
|---777-777-777-777-777----------------------------------------------|
|--------------------------------------------------------------------|

Riff E
|------------------------------------------|
|------------------------------------------|
|------------------------------------------|
|--10----9----7----5----4------------------|
|--8-10--7-9--5-7--3-5--2-4--5-4-2---------|
|----8-----7----5----3----2--3-2-0---------|


Venom albums
2000 Resurrection
1997 Cast In Stone
1992 Bloodlust/In Nominai Satanas
1986 The Singles 80-86
1984 At War with Satan
1982 Black Metal
1981 Welcome To Hell
Cast In Stone tabs
01The Evil One tabbass tab
03All Devils Eve tabbass tab
11Kings Of Evil tabbass tab

 

1