Search tabs:
Browse artists: 0-9 | A | B | C | D | E | F | G | H | I | J | K | L | M | N | O | P | Q | R | S | T | U | V | W | X | Y | Z
/ Yes / 90125 (1983) / Owner of a Lonely Heart guitar tab

Artist:YES
Song: Owner of a lonleny heart

i owe all credit to some guy who tabbed this, i did not personally tab this

This version sounds 100% correct

For the intro add tons of distortion:
E|---------------------------------------------------|
B|---------------------------------------------------|
G|---------------------------------------------------|
D|-7---9-10--12-12------------7--9-10--12-12-------5-|
A|-7---9-10--12-12------------7--9-10--12-12-------5-|
E|-5---7-8---10-10-let ring---5--7-8---10-10-slide-3-|

Main riff goes like this(use some light distortion):
E|--------------------------|
B|--------------------------|
G|--------------------------|
D|-2---4-5--7-7--5-5--------|
A|-0---2-3--5-5--5-5--------|
E|---------------3-3--------|
              (palm mute)

The chorus(clear sound with chorus effect pedal):
E|----------------0-----------|
B|------------------3---------|
G|--------------------0-------|
D|-2---4-5--7-7---------------|
A|-0---2-3--5-5---------------|
E|-----------------------3----|

For the part that is not the chorus but anderson sings:"owner of a l.." strum this
chords(again with clear sound and chorus effect)
E|-0--3-|
B|-2--3-|
G|-2--0-|
D|-2--0-|
A|-0--2-|
E|----3-|

Right after the solo comes a calm part, play this:
(Use clear sound with chorus effect)
E|---0-------------------------------|
B|-----3------3------------3------3--|
G|-------0--0---0--------0------0----|
D|----------------0----0------0------|
A|-0-----------------2------3--------|
E|-----------------------------------|


Yes albums
2001 Magnification
2001 Original Members of Yes: Anderson, Wakeman, Howe
1997 Keys to Ascension, Vol. 2
1987 Big Generator
1983 90125
1978 Tormato
1977 Going for the One
1972 Close to the Edge
1972 Fragile
1971 The Yes Album
1970 Time and a Word
1969 Yes
90125 tabs
01Owner of a Lonely Heart tabbass tab
04Changes tabbass tab
06Leave It tabbass tab

 

1