Search tabs:
Browse artists: 0-9 | A | B | C | D | E | F | G | H | I | J | K | L | M | N | O | P | Q | R | S | T | U | V | W | X | Y | Z
/ / / bass tab

Band: 36 Crazyfists
Song: At The End Of August
Album: A Snow-Capped Romance
Bassist: Mick Whitney
Tabbed By: BurnTheBassistMX (bronzemetaler@hotmail.com)
Tuning: C G C F

Intro (0:21)
F |--------------------------------------|
C |--------------------------------------|
G |-----333-----333-------555-----555----|
C |-333-----333-----3-555-----555-----5--|

F |--------------------------------------|
C |--------------------------------------|
G |-----777-----777-------888-----88888--|
C |-777-----777-----7-888-----888--------|
(0:32)
F |------------------------------------|
C |------------------------------------|
G |------------------------------------|
C |--555555555555555-3333333333333333--|

F |------------------------------------|
C |------------------------------------|
G |------------------------------------|
C |--222222222222222-0000000000000000--|

Verse (0:46) (Tricky timing... also here are a few variations)
F |---------------------------|
C |---------------------------|
G |---------------------------|
C |--3-0h3-0h3-0h5-3-2-0-2-3--|

Pre Chorus 2 (1:06) (Thanks To MAZMAN for pointing this out to me)
F|-----------------------------------|
C|-----------------------------------|
G|-----------------------------------|
C|--3-3-3-3-3-3-3-3-3-3-3-3-3-3-3-3--|

F|-----------------------------------|
C|-----------------------------------|
G|-----------------------------------|
C|--5-5-5-5-5-5-5-5-5-5-5-5-5-5-5-5--|

F|-----------------------------------|
C|-----------------------------------|
G|-----------------------------------|
C|--7-7-7-7-7-7-7-7-7-7-7-7-7-7-7-7--|

F|-----------------------------------|
C|-----------------------------------|
G|-----------------------------------|
C|--8-8-8-8-8-8-8-8-8-8-8-8-8-8-8-8--|

Chorus (1:17)
F |-------------------------------------|
C |-------------------------------------|
G |-------------------------------------|
C |--7777777777777777-3333333333333333--|

F |--------------------------------|
C |--------------------------------|
G |--------------------------------|
C |--7-7-77-777-33333333-55555555--|
(Tens)
F |-----------------------------------------------------|
C |-----------------------------------------------------|
G |-----------------------------------------------------|
C |--8888888888888888-10101010101010101010101010101010--|
(Twelves)
F |------------------------------------------------------|
C |------------------------------------------------------|
G |------------------------------------------------------|
C |--12121212121212121212121212121212-55555555-33333333--|

Verse (1:39)
Pre Chorus (1:58)
Chorus (2:09)

Quick Slide (2:29)
F |-------|
C |-------|
G |-------|
C |--7--|

Bridge (2:39)
F |-------------------------------------------------------|
C |-------------------------------------------------------|
G |-------------------------------------------------------|
C |--5-5-5-5-5-5-5-5-5-3-3-3-3-3-3-3-3-2-2-2-2-2-2-2-2-0--|
(2:48)
F |-----------------------------------------------|
C |-----------------------------------------------|
G |-----------------------------------------------|
C |--101010-101010-101010-101010-888-888-888-888--|

F |-----------------------------------|
C |-----------------------------------|
G |-----------------------------------|
C |--777-777-777-777-555-555-555-555--|

Chorus (3:09)
Verse (3:37)


albums
tabs

 

1